Song name
# A B C D E F G H I J K L M N O P Q R S T U V W X Y Z

Paragraf 119 - Braend Amalienborg tab

Paragraf 119 - Brænd Amalienborg
tabbet af selveste.. SaaaandxD

ting lige før verset, som ikke er introen
e|--------------------------------|
B|--------------------------------|
D|--------------------------------|
G|--------------------------------|
A|99--77-9--44---99--77--9-44-----|
E|77--55-7--22---77--55--7-22-----|

vers

e|--------------------------------|-----------------------|
B|--------------------------------|-----------------------|
D|--------------------------------|-----------------------|
G|--------------------------------|-----------------------|
A|99--77-9--44---99--77--9--44-x2-|-5555-7777-99999999-x2-|
E|77--55-7--22---77--55--7--22----|-3333-5555-77777777----|

omkvæd

e|----------------------------------------------------------|
B|----------------------------------------------------------|
D|----------------------------------------------------------|
G|----------------------------------------------------------|
A|99999999--1010-1212-12--99999999--1010-1212-12------------|
E|77777777--8-8--1010-10--77777777--8-8--1010-10------------|

Og.. i kender rækkefølgen!
Tap to rate this tab
 
# A B C D E F G H I J K L M N O P Q R S T U V W X Y Z