Song name
# A B C D E F G H I J K L M N O P Q R S T U V W X Y Z

Paragraf 119 - Sl Igen tab

Intro
e-------------|
B-------------|
G-------------|
D-------------|
A-7---5---9---|
E-5---3---7---|

Vers
e--------------------------------- e-------------------------------------|
B--------------------------------- B-------------------------------------|
G--------------------------------- G-------------------------------------|
D--------------------------------- D-------------------------------------|
A-7-7-7-7-5-5-5-5-9-9-9-9-9-9-9-9- A-7-7-7-7-5-5-5-5-9-9-9-9-10-10-10-10-|
E-5-5-5-5-3-3-3-3-7-7-7-7-7-7-7-7- E-5-5-5-5-3-3-3-3-7-7-7-7--8--8--8--8-|

Omkved
e-----------------------------------------------------------------|
B-----------------------------------------------------------------|
G-----------------------------------------------------------------|
D-----------------------------------------------------------------|
A-7-7-7-7-7-7-7-7-5-5-5-5-5-5-5-5-9-9-9-9-9-9-9-9-9-9-9-9-9-9-9-9-|
E-5-5-5-5-5-5-5-5-3-3-3-3-3-3-3-3-7-7-7-7-7-7-7-7-7-7-7-7-7-7-7-7-|
pm---- ----- - ------- ----- - ------- ----- --- ----- ----- - ---

Intro x2
vers 1 x6
omkv. x2
vers 2 x6
omkv. x2
omkv.(hvor du spiller intro parten istedet) x2
vers riffet. x1

Mysli-the-ripper

PM=Palm mute
Tap to rate this tab
# A B C D E F G H I J K L M N O P Q R S T U V W X Y Z