Song name
# A B C D E F G H I J K L M N O P Q R S T U V W X Y Z

Parallel Evolution - That Morning Feeling tab

Artist:- Parallel Evolution
Album:- Screaming for Church on Sundays
Song:- That Morning Feeling

Hope you like the song guys:-

Verse/Intro:-

e|--------|--------|--------|--------|
B|--------|--------|--------|--------|
G|--------|--------|--------|--------|
D|----2---|----0---|----0---|-----0--| 
A|--2---0-|--0-----|--2---2-|--0/2---|
E|0-------|2-----3-|--------|2-------|
		 

e|--------|--------|--------|--------|
B|--------|--------|--------|--------|
G|--------|--------|--------|--------|
D|----2---|----0---|----0---|----0---| 
A|--2---0-|--0-----|--2---2-|--0---0-|
E|0-------|2-----3-|--------|2-------|


Chorus:-

e|0---0---|2-2-----|3---3---|2-3-2---|
B|0---0---|3-3-----|3---3---|3-3-3---|
G|0---0---|2-2-----|0---0---|2-2-2---|
D|2---2---|0-0-----|0---0---|0-0-0---|
A|2---2---|x-x-----|2---2---|x-x-x---|
E|0---0---|x-x-----|3---3---|x-x-x---|
Tap to rate this tab
# A B C D E F G H I J K L M N O P Q R S T U V W X Y Z