Song name
# A B C D E F G H I J K L M N O P Q R S T U V W X Y Z

Paraluman - In Lab tab

IN LAB by Paraluman

INTRO: A--E-D

VERSE:
 A            Bm             C#m       D
 Buti ka pa nakakatulog nang mahimbing
  A      Bm            C#m         D
 ako eto magdamag na namang gising

REFRAIN:
    C#m    D       C#m      D
 Iniisip kita, nalalaman mo ba

CHORUS:
    A-Bm-C#m-D
 Sinta.....

ADLIB: A-Bm-C#m-D

e|--------------|
B|-5/7-5--------|
G|-------6-7-6--| 4x
D|--------------|
A|--------------|
E|--------------|

e|--------------------------------------|
B|-5/7-5---------5/7-5------------------|
G|-------7-6-7-6-------7-6h7p6h7p6h7p6--|
D|--------------------------------------|
A|--------------------------------------|
E|--------------------------------------|

e|-5---7-7---9-9-7-7-5-5h7p5--|
B|---5-----5------------------|
G|----------------------------| 2x
D|----------------------------|
A|----------------------------|
E|----------------------------|

etc...


NITRAM
05-09-10
7:36 AM
Tap to rate this tab
# A B C D E F G H I J K L M N O P Q R S T U V W X Y Z