Paraluman - Tabi tab

Verse 1:
E                    Bm        A          D
Naranasan mo na bang madapa at masugatan,
E             Bm            A          D
Hawakan mo ko Hinding hindi pababayaan

Chorus:
E            Bm  
Huwag mag-alala, 
A       D 
di kita pababayaan
E         Bm
Sa Iyong tabi
A            D
Ako ay iyong mahahawakan


Adlib Solo Part: F#-Bm 3x then A-Bm

e-----------------------9-7-------|------------------------9-7--9s10-9-|
b-12p10-12p10-12p10-12------------|---12p10-12p10-12p10-12-------------|
g---------------------------11s13-|---|--------------------------------|
D---------------------------------|------------------------------------|
A---------------------------------|------------------------------------|
E---------------------------------|------------------------------------|

e-----------------------9-7-------|-----9-7------|
b-12p10-12p10-12p10-12------------|---------9----|
g---------------------------11s13-|------------9-|
D---------------------------------|--------------|
A---------------------------------|--------------|
E---------------------------------|--------------|

e------------------------------------------------------|
b------------------------------------------------------|
g------/13-13-13-13-13-13-13-/16-16-16-16-16-16----/9~-|
D------------------------------------------------------|
A------------------------------------------------------|
E------------------------------------------------------|

Enjoy!!!.....
Tap to rate this tab
 
# A B C D E F G H I J K L M N O P Q R S T U V W X Y Z