Song name
# A B C D E F G H I J K L M N O P Q R S T U V W X Y Z

Paraluman - Tabi tab

Tabi - Paraluman ft. Callalily
Di ko na nilagay ung chords, di ko kc alam ung chord name.
Any suggestions, pls comment & Enjoy ;)
Intro:
Guitar 1
e|-------------------------------------------|
b|-------------------------------------------|
g|-99999999-99999999----------77777777-------|--5x
D|-99999999-99999999-77777777-77777777-------|
A|-77777777-66666666-77777777-55555555-------|
E|-------------------55555555----------------|

Guitar 3(starts on the 2nd chord pattern)(pde din na wala na to, sa simula lng naman to)
e|----------7~--------------------------------------|
b|-5~-5-7-9----7-9-5-9-7-5-9-7-5-9-7-5-9-7-5-9-7-5--|
g|--------------------------------------------------|--4x
D|--------------------------------------------------|
A|--------------------------------------------------|
E|--------------------------------------------------|

Guitar 2(Starts on the 3rd chord pattern)
e|---------12----12--|
b|-9-10-12----12-----|
g|-------------------|--3x
D|-------------------|
A|-------------------|
E|-------------------|

Verse 1:
Guitar 1
e|-------------------------------------------|
b|-------------------------------------------|
g|-99999999-99999999----------77777777-------|--2x
D|-99999999-99999999-77777777-77777777-------|
A|-77777777-66666666-77777777-55555555-------|
E|-------------------55555555----------------|

Chorus:
Guitar 1
e|-------------------------------------------|
b|-------------------------------------------|
g|-99999999-99999999----------77777777-------|--2x
D|-99999999-99999999-77777777-77777777-------|
A|-77777777-66666666-77777777-55555555-------|
E|-------------------55555555----------------|

Guitar 2
e|---------12----12--|
b|-9-10-12----12-----|
g|-------------------|--2x
D|-------------------|
A|-------------------|
E|-------------------|

Interlude:
Guitar 1
e|-------------------------------------------|
b|-------------------------------------------|
g|-99999999-99999999----------77777777-------|
D|-99999999-99999999-77777777-77777777-------|
A|-77777777-66666666-77777777-55555555-------|
E|-------------------55555555----------------|

Guitar 2
e|---------12----12--|
b|-9-10-12----12-----|
g|-------------------|
D|-------------------|
A|-------------------|
E|-------------------|

Verse 2:
Guitar 1
e|-------------------------------------------|
b|-------------------------------------------|
g|-99999999-99999999----------77777777-------|--2x
D|-99999999-99999999-77777777-77777777-------|
A|-77777777-66666666-77777777-55555555-------|
E|-------------------55555555----------------|

Chorus:
Guitar 1
e|-------------------------------------------|
b|-------------------------------------------|
g|-99999999-99999999----------77777777-------|--2x
D|-99999999-99999999-77777777-77777777-------|
A|-77777777-66666666-77777777-55555555-------|
E|-------------------55555555----------------|

Guitar 2
e|---------12----12--|
b|-9-10-12----12-----|
g|-------------------|--2x
D|-------------------|
A|-------------------|
E|-------------------|

Adlib: F#-B 3x then A--B
solo:
Guitar 1
e|-------------------|    |-------------------|
b|-------------------|    |-------------------|
g|----------44444444-|--3x|-------------------|
D|-44444444-44444444-|    |-77777777-99999999-|
A|-44444444-22222222-|    |-77777777-99999999-|
E|-22222222----------|    |-55555555-77777777-|

Guitar 2
e|----------------------9-7------|-----------------------9-7--/10-9--7---|
b|-11p9-11p9-11p9-11-9------7-9--|---11p9-11p9-11p9-11-9-----------------|
g|-------------------------------|---------------------------------------|
D|-------------------------------|---------------------------------------|
A|-------------------------------|---------------------------------------|
E|-------------------------------|---------------------------------------|

e|----------------------9-7------|---9-7------|
b|-11p9-11p9-11p9-11-9------7-9--|-------9----|
g|-------------------------------|---------9--|
D|-------------------------------|------------|
A|-------------------------------|------------|
E|-------------------------------|------------|

e|-----------------------------------------|
b|-9-9-9-9-9-9-9-9/12-12-12-12-12-12-12-12-|
g|-----------------------------------------|
D|-----------------------------------------|
A|-----------------------------------------|
E|-----------------------------------------|

Chorus:
Guitar 1(palm mute)
Huwag mag-alala....
e|-------------------------------------------|
b|-------------------------------------------|
g|-99999999-99999999----------77777777-------|
D|-99999999-99999999-77777777-77777777-------|
A|-77777777-66666666-77777777-55555555-------|
E|-------------------55555555----------------|

Guitar 2
e|--------/12-12~-------------|
b|----/12---------9~-10s12~---|
g|-9~-------------------------|
D|----------------------------|
A|----------------------------|
E|----------------------------|

Guitar 1(palm mute)
Sa iyong tabi....
e|-------------------------------------------|
b|-------------------------------------------|
g|-99999999-99999999----------77777777-------|
D|-99999999-99999999-77777777-77777777-------|
A|-77777777-66666666-77777777-55555555-------|
E|-------------------55555555----------------|
Guitar 2
e|---------12----12--|
b|-9-10-12----12-----|
g|-------------------|---4x
D|-------------------|
A|-------------------|

Guitar 1
Huwag mag-alala....
e|-------------------------------------------|
b|-------------------------------------------|
g|-99999999-99999999----------77777777-------|---4x
D|-99999999-99999999-77777777-77777777-------|
A|-77777777-66666666-77777777-55555555-------|
E|-------------------55555555----------------|

Guitar 2
e|---------12----12--|
b|-9-10-12----12-----|
g|-------------------|---20x(till end of chorus)
D|-------------------|
A|-------------------|
E|-------------------|

Outro:
Guitar 1
e|---------------|
b|---------------|
g|-9~-9~----7~-9~|
D|-9~-9~-7~-7~-9~|
A|-7~-6~-7~-5~-7~|
E|-------5~------|

Guitar 2
e|---------12----12--|
b|-9-10-12----12-----|
g|-------------------|---4x
D|-------------------|
A|-------------------|
E|-------------------|
Tap to rate this tab
 
# A B C D E F G H I J K L M N O P Q R S T U V W X Y Z