Song name
# A B C D E F G H I J K L M N O P Q R S T U V W X Y Z

Paramita - Waiting For A Sign tab

Song: Waiting for a sign
Artist: Paramita
Tabbed By: Lester Manalo a.k.a Pretselman

++++++++++++++++++++++++++++++++++++++++++++++++++
Add nio ako sa friendster: retselmanalo@yahoo.com+
++++++++++++++++++++++++++++++++++++++++++++++++++

Tuning: EADGBE/standard

Intro: 4X
(Guitar 1) +++Chords+++

	D(2 strums)	B9(1 strum)    A9(2 strums)    B9(1 strum)
e |-----2----------------3--------------3-----------------3----------|
b |-----3----------------3--------------3-----------------3----------|
g |-----2----------------2--------------2-----------------2----------|
d |-----0----------------0--------------2-----------------0----------|	
a |-----x----------------2--------------0-----------------2----------|
e |-----x----------------x--------------x-----------------X----------|



(Guitar 2)

e |----------------------------------------------------------10--------------------|
b |---10--7--5--------7h8--10--7h8----10--7--5------7h8--10------10--7h8p7---------|
g |--------------7h9----------------------------7h9-------------------------9---7--|
d |--------------------------------------------------------------------------------|  
a |--------------------------------------------------------------------------------|
e |--------------------------------------------------------------------------------|


(Same as the Intro chords)
screaming in the dark
you try to gasp for air
invisible at times
you start to notice
you sit and stare
waiting for a sign


        A9 ( 3 strums then pause)
e |------3--------------------------------|
b |------3--------------------------------|
g |------2--------------------------------|
d |------2--------------------------------|  
a |------0--------------------------------|
e |------X--------------------------------|
     
     can you see?........
     in your dreams

        F#9(1 strum)      G (3 strums then pause)
e |------3----------------3----------------|
b |------3----------------3----------------|
g |------2----------------0----------------|
d |------0----------------0----------------|  
a |------0----------------2----------------|
e |------2----------------3----------------|
         
         far beyond your imagination....
         lie the meaning of your existence



(Same as the Intro chords)
you start to twist and turn
you've got nowhere to run
your eyes are getting tired
you start to notice
you sit and stare
waiting for a sign

(A9- F#9, G)
when will you understand?
everything you see is temporary
this is what we have
we're just passing by... just passing by...

   Adlib

e |---------------------------------------10-------------------------------------------|
b |---------7h8--10--12\5--------7h8--10-----10--------7h8--10---12\5--7h8p7-----------|
g |-----7h9-----------------7h9-------------------7h9-------------------------9---7----|
d |------------------------------------------------------------------------------------|  
a |------------------------------------------------------------------------------------|
e |------------------------------------------------------------------------------------|


e |--------------------------------------|
b |----------7h8p7-----------------------|
g |------------------9---7---------------|
d |---7\12-------------------------------|  
a |--------------------------------------|
e |--------------------------------------|






| /  slide up
| \  slide down
| h  hammer-on
| p  pull-off

Tap to rate this tab
# A B C D E F G H I J K L M N O P Q R S T U V W X Y Z