Song name
# A B C D E F G H I J K L M N O P Q R S T U V W X Y Z

Paramita - Sa Piling Nya tab

Song : Sa Piling Nya
Artist : Paramita
Ear Tabber : Nathaniel T, Mercado
Email : stryder_kaskasero@yahoo.com
        demonyo_de_kaskasero@yahoo.com
        nathanielara@gmail.com


Siyempre dedicated nanaman para kay Lara G, Babula
Wala Naman iba eh. (Hay... ganito na ba talaga ang sitwasyon
"Sigh" Mahal Na Mahal Kita) this song is ear tabbed by me and its not 100% sure,
if you have comments or suggestion just email me...tnx..


Intro
e |--------------------------------------------------------------|
b |--------------------------------------------------------------|
g |--------------------------------------------------------------|
d |-----------4--------4--------4--------4-----------------------|
a |--------2--------2--------2--------2--------------------------|
e |----4---------2--------0--------2-----------------------------|

Stanza
e |--------------------------------------------------------------|
b |--------------------------------------------------------------|
g |--------------------------------------------------------------|
d |-----------4--------4--------4--------4-----------------------|	4x
a |--------2--------2--------2--------2--------------------------|
e |----4---------2--------0--------2-----------------------------|

Ngayon na ang huling paalam
Sayo aking mahal sa ting nakaraan
Ibibigay sayo ang kailangan mo
Mula ngayon ikay malaya na..malaya na

Guitar 1

e|-----------------------------------------------------------------------------------------------|
b|-----------------------------------------------------------------------------------------------|
g|----11-/-13--13-\-11--------11-/-13--13-\-11--------11-/-13--13-\-11--------11-/-13--13-\-11---|
d|-----9-/-11--11-\--9---------9-/-11--11-\--9---------9-/-11--11-\--9---------9-/-11--11-\--9---|
a|-----9-/-11--11-\--9---------9-/-11--11-\--9---------9-/-11--11-\--9---------9-/-11--11-\--9---|
e|-----------------------------------------------------------------------------------------------|

Guitar 2 (Let Ring)

e|-----------------------------------------------------------------------------------------------|
b|-----7-----------------------------------------------------------------------------------------|
g|----------------------------8------------------------------------------------6-----------------|
d|----------------------------------------------------9------------------------------------------|
a|-----------------------------------------------------------------------------------------------|
e|-----------------------------------------------------------------------------------------------|

Stanza 2

e |----------------------------------------|
b |----------------------------------------|
g |-----------13--11-----------------------|
d |------9/11------------------------------|  7x
a |----------------------------------------|
e |----------------------------------------|
Hindi na maibabalik ang
Dating masayang pagsasama
e |----------------------------------------|
b |----------------------------------------|
g |----11-/-13--13-\-11--------------------|
d |-----9-/-11--11-\--9--------------------|  9X
a |-----9-/-11--11-\--9--------------------|
e |----------------------------------------|
Mahirap nang pilitin pa
Ngayon ikay handa ko nang palayain


Chorus: (I'm not so sure about this part )
           Just Play The Pattern

e |--------------------------------------|
b |--------------------------------------|
g |-----11-------------------------------|
d |------9-----------6-----4-------------| 4x
a |------7-----------6-----4-------------|
e |------------------4-----2-------------|

Tangi kong dasal
Ang ikay lumigaya sa piling nya
Di ako hahadlang
Sa inyong pagmamahalan

e|--------------------------------------------------------9----------14----------16---------|
b|------------------------------------------------------------------------------------------|
g|-----------13-11----------13-11----------13-11------9/11------11/16--------16/18----------|
d|------9/11-----------9/11-----------9/11--------------------------------------------------|2x
a|------------------------------------------------------------------------------------------|
e|------------------------------------------------------------------------------------------|

Stanza 3

e |--------------------------------------------------------------|
b |--------------------------------------------------------------|
g |--------------------------------------------------------------|
d |--------6---------4---------2---------4-----------------------|	2x
a |--------6---------4---------2---------4-----------------------|
e |--------4---------2---------0---------2-----------------------|

Di umimik,
Dumadaing ng palihim.
Mahal pa rin kita

Guitar 2 (Let Ring) 4 Beats Every Note...
e |------------------------------------|
b |-----7------------------------------|
g |-------------8--------------6-------|
d |---------------------9--------------| 2x
a |------------------------------------|
e |------------------------------------|

Hindi mo ba nadidinig
Ang puso kong naninimdim
O giliw ko, akoy para lang sa iyo

e|--------14-------14-------11--------11----------------------------9----------9-|
b|---------------------------------------------12---------12---------------------|
g|-----11-------11--------8---------8----------------------------6----------6----|
d|-------------------------------------------9----------9------------------------|
a|-------------------------------------------------------------------------------|
e|-------------------------------------------------------------------------------|

4x

Unti unti ko nang
Nalilimutan ang ating
Makulay na nakaraan
Ang aking tanging bilin sayo
Alalahanin mong ikaw at ako

Guitar 1
e |--------------------------------------------------------------|
b |--------------------------------------------------------------|
g |--------------------------------------------------------------|
d |-----------4--------4--------4--------4-----------------------|
a |--------2--------2--------2--------2--------------------------|
e |----4---------2--------0--------2-----------------------------|

Guitar 2
e |---------------------------|
b |---------------------------|
g |------------13-11----11----|
d |------9/11--------11-------|
a |---------------------------|
e |---------------------------|

Ikaw At Ako...

Refrain (Bass And Drums)

Guitar
e |--------------------------------------------|
b |--------------------------------------------|
g |-------------------13---11------11----------|
d |------9--/--11--------------11--------------|
a |--------------------------------------------|
e |--------------------------------------------|

e|----------------------------------------------------------------------------|
b|--------------------------------------------------11-11-11-11--11--11-------|
g|---------11-11-11-11-11-11-11-11-11-11-11-11--11--11------------------------|
d|----------------------------------------------------------------------------|
a|----------------------------------------------------------------------------|
e|----------------------------------------------------------------------------|

Ngayon na ang huling paalam
Sayo aking mahal sating nakaraan...

Chorus

e |-----------------------------------------|
b |-----------------------------------------|
g |-----11----------------------------------|
d |------9-----------6-----4----------------|8 x
a |------7-----------6-----4----------------|
e |------------------4-----2----------------|

Tangi kong dasal
Ang ikay lumigaya
Sa piling nya
Di ako hahadlang
Sa inyong pagmamahalan

O paalam na sa ting dal'wa,
Ang iyong huling ngiti
Ang nasa aking alaala..alaala

e|---------------------------------------------------9----------14-----------16-------|
b|------------------------------------------------------------------------------------|
g|-----------13-11--------13-11--------13-11-----9/11------11/16--------16/18---------|
d|------9/11----------9/11--------9/11------------------------------------------------|2x
a|------------------------------------------------------------------------------------|
e|------------------------------------------------------------------------------------|
Oooooooh Oooooooh Oooooooh oh oh Oooooooh Oooooooh Oooooooh oh oh

End
Tap to rate this tab
# A B C D E F G H I J K L M N O P Q R S T U V W X Y Z