Song name
# A B C D E F G H I J K L M N O P Q R S T U V W X Y Z

Paramore - Lovesick Melody tab

note!!!
tuning-( eb bb gb db Ab Db )

intro-
GtrI
|----------------------------------------------------------|
|----------------------------------------------------------|
|-6-6-6-6-6-6-6-6--99999999-77777777-1111111111111111------|
|-x-x-x-x-x-x-x-x--xxxxxxxx-xxxxxxxx-x-x-x-x-x-x-x-x-------|2x
|-4-4-4-4-4-4-4-4--77777777-66666666-9-9-9-9-9-9-9-9-------|
|----------------------------------------------------------|
GtrII
|--------------------------------------|                     ----7~-------|
|--------------------------------------|                     --7~--9~-----|
|-66666666-----------------------------|                     -------------|
|-66666666-77777777-66666666-22222222--|2x                   -------------|
|-44444444-77777777-66666666-22222222--|                     -------------|
|----------77777777-66666666-22222222--|                     -------------|

Verse-
GtrI                                                           stop this song
|--4~-------------------------------4~---------------------|    ---------|
|---5~--------------------------------5~-------------------|    ---5~----|
|----6~---------------------------------6~-----------------|2x  ---6~----|
|------6~---------------------------------6~---------------|    ---6~----|
|----------------------------------------------------------|    ---4~----|
|----------------------------------------------------------|    ---------|


Refrain-
|-12----12----11----11----11------------------------------------------|
|---12----12----12----12----12-----12-----12-----14------14----14-----|
|-----13----13----13----13----13------13-----13----13------13----13---|
|---------------------------------------14-----14-----14-----14----14-|
|---------------------------------------------------------------------|
|---------------------------------------------------------------------|

|-12----12----14----14----14------16-----16------16--19---------|
|---12----12----12----12----12-------14-----14---------17--17---|
|-----13----13----13----13----13-------16------16------------18-|
|---------------------------------------------------------------|
|---------------------------------------------------------------|
|---------------------------------------------------------------|


Chorus-

GtrI
|----------------------------------------------------------|
|----------------------------------------------------------|
|-6-6-6-6-6-6-6-6--99999999-77777777-1111111111111111------|
|-x-x-x-x-x-x-x-x--xxxxxxxx-xxxxxxxx-x-x-x-x-x-x-x-x-------|2x
|-4-4-4-4-4-4-4-4--77777777-66666666-9-9-9-9-9-9-9-9-------|
|----------------------------------------------------------|
GtrII
|--------------------------------------|                     ----7~-------|
|--------------------------------------|                     --7~--9~-----|
|-66666666-----------------------------|                     -------------|
|-66666666-77777777-66666666-22222222--|2x                    ------------|
|-44444444-77777777-66666666-22222222--|                     -------------|
|----------77777777-66666666-22222222--|                     -------------|

do verse 
refrain 2x
do chorus

prebridge-
|----------------------------------|
|----------------------------------|
|-16161616-13131313-8888-9999------|
|-x-x-x-x--x-x-x-x--xxxx-xxxx------|
|-14141414-11111111-6666-7777------|
|----------------------------------|

bridge-
GtrI
|----------------------------------------------------------------------|
|----------------------------------------------------------------------|
|-99-999-999-999-9-11111111111111111-131313131313131313-99-999-999-999-|
|-xx-xxx-xxx-xxx-x-xx-xxx-xxx-xxx-x--xx-xxx-xxx-xxx-x---xx-xxx-xxx-xxx-|2x
|-77-777-777-777-7-99-999-999-999-9--11111111111111111--77-777-777-777-|
|----------------------------------------------------------------------|

GtrII
|--------------------------------------------------------------------|
|--------------------------------------------------------------------|
|------------------66-666-666-666-6------------------44-444-444-444--|
|-77-777-777-777-7-66-666-666-666-6-22-222-222-222-2-44-444-444-444--|2x
|-77-777-777-777-7-44-444-444-444-4-22-222-222-222-2-22-222-222-222--|
|-77-777-777-777-7------------------22-222-222-222-2-----------------|

GrtI
|----------------------------------|
|----------------------------------|
|-16161616-13131313-8888-9~--------|
|-x-x-x-x--x-x-x-x--xxxx-x~--------|
|-14141414-11111111-6666-7~--------|
|----------------------------------|

then
GtrI
|----------------------------------------------------------|
|----------------------------------------------------------|
|-6666--8888--9999--11111111-13131313-14141414-16161616----|
|-xxxx--xxxx--xxxx--x-x-x-x--x-x-x-x--x-x-x-x--x-x-x-x-----|
|-4444--6666--7777--9-9-9-9--11111111-12121212-14141414----|
|----------------------------------------------------------|

GtrII
|----------------------------------------------------------|
|----------------------------------------------------------|
|----------------------------------------------------------|
|-7-7-7-7-7-7-7-7-7-7-7-7-7-7-7-7-7-7-7-7-7-7-7-7-7-7-7-7--|
|-7-7-7-7-7-7-7-7-7-7-7-7-7-7-7-7-7-7-7-7-7-7-7-7-7-7-7-7--|
|-7-7-7-7-7-7-7-7-7-7-7-7-7-7-7-7-7-7-7-7-7-7-7-7-7-7-7-7--|


Repeat Chorus-

outro-
GtrI
|--4~-------------------------------4~---------------------|
|---5~--------------------------------5~-------------------|
|----6~---------------------------------6~-----------------|2x
|------6~---------------------------------6~---------------|  
|----------------------------------------------------------|
|----------------------------------------------------------|   
Tap to rate this tab
# A B C D E F G H I J K L M N O P Q R S T U V W X Y Z