Song name
# A B C D E F G H I J K L M N O P Q R S T U V W X Y Z

Paramore - My Heart Acoustic tab

My Heart - Paramore
Tabbed by: Tatakai!

Tuning: Standard

Intro

e|-------------------------------4-4444-4-4444-------------------|
B|-------------------------------4-5555-4-4444-------------------|
G|----------------2-22222-2222---5-6666-4-4444---2-22222-2222----| (x2)
D|-1-11111-1111---2-22222-2222---6-6666-6-6666---2-22222-2222----|
A|-2-22222-2222------------------6-4444-6-6666-------------------|
E|-2-22222-2222------------------4-4444-4-4444-------------------|

Verse (I am finding out...)

e|-4-4444---2-2222-----------------------------------------------|
B|-4-4444---2-2222-----------------------------------------------|
G|-5-5555---4-4444---2-22222-22222-------------------------------| (x5)
D|-6-6666---4-4444---2-22222-22222-------------------------------|
A|-6-6666---2-2222-----------------------------------------------|
E|-4-4444---2-2222-----------------------------------------------|

e|-4-4444---4-4444-----------------------------------------------|
B|-4-4444---4-4444-----------------------------------------------|
G|-5-5555---4-4444---2----2222-----------------------------------|
D|-6-6666---6-6666---2----2222-----------------------------------|
A|-6-6666---6-6666-----------------------------------------------|
E|-4-4444---4-4444-----------------------------------------------|

Chorus (Sing us a song...)

e|-------------------------------4-4444-4-4444-------------------|
B|-------------------------------4-5555-4-4444-------------------|
G|----------------2-22222-2222---5-6666-4-4444---2-22222-2222----| (x2)
D|-1-11111-1111---2-22222-2222---6-6666-6-6666---2-22222-2222----|
A|-2-22222-2222------------------6-4444-6-6666-------------------|
E|-2-22222-2222------------------4-4444-4-4444-------------------|

Verse (I am nothing now...)

e|-4-4444---2-2222-----------------------------------------------|
B|-4-4444---2-2222-----------------------------------------------|
G|-5-5555---4-4444---2-22222-22222-------------------------------| (x5)
D|-6-6666---4-4444---2-22222-22222-------------------------------|
A|-6-6666---2-2222-----------------------------------------------|
E|-4-4444---2-2222-----------------------------------------------|

e|-4-4444---4-4444-----------------------------------------------|
B|-4-4444---4-4444-----------------------------------------------|
G|-5-5555---4-4444---2----2222-----------------------------------|
D|-6-6666---6-6666---2----2222-----------------------------------|
A|-6-6666---6-6666-----------------------------------------------|
E|-4-4444---4-4444-----------------------------------------------|

Chorus (Sing us a song...)

e|-------------------------------4-4444-4-4444-------------------|
B|-------------------------------4-5555-4-4444-------------------|
G|----------------2-22222-2222---5-6666-4-4444---2-22222-2222----| (x2)
D|-1-11111-1111---2-22222-2222---6-6666-6-6666---2-22222-2222----|
A|-2-22222-2222------------------6-4444-6-6666-------------------|
E|-2-22222-2222------------------4-4444-4-4444-------------------|

Bridge (This heart, it beats, beats for only you...)

e|-4-44444-4444---------------------------------2-22222-2222-----|
B|-5-55555-5555---------------------------------2-22222-2222-----|
G|-6-66666-6666---1-11111-1111---2-22222-2222---2-44444-4444-----|
D|-6-66666-6666---2-22222-2222---2-22222-2222---2-44444-4444-----| (x2)
A|-4-44444-4444---2-22222-2222------------------2-22222-2222-----|
E|-4-44444-4444---------------------------------2-22222-2222-----|

Outro (This heart it beats for only you, my heart is yours...)
    pm           pm           pm
e|-4-4-4-4444----------------------------------2-2-2-------------|
B|-5-5-5-5555----------------------------------2-2-2-------------|
G|-6-6-6-6666---1-1-1-1111---2-2-2-2222-2-22---4-4-4-------------| (x3)
D|-6-6-6-6666---2-2-2-2222---2-2-2-2222-2-22---4-4-4-------------|
A|-4-4-4-4444---2-2-2-2222---------------------2-2-2-------------|
E|-4-4-4-4444----------------------------------2-2-2-------------|

(Screaming enters)
e|-444444444444--------------------------------------22222-------|
B|-555555555555--------------------------------------22222-------|
G|-666666666666---111111111111---22222222222222222---44444-------| (x3)
D|-666666666666---222222222222---22222222222222222---44444-------|
A|-444444444444---222222222222-----------------------22222-------|
E|-444444444444--------------------------------------22222-------|


e|-444444444444--------------------------------------22222---4---|
B|-555555555555--------------------------------------22222---5---|
G|-666666666666---111111111111---22222222222222222---44444---6---|
D|-666666666666---222222222222---22222222222222222---44444---6---|
A|-444444444444---222222222222-----------------------22222---4---|
E|-444444444444--------------------------------------22222---4---|
Tap to rate this tab
# A B C D E F G H I J K L M N O P Q R S T U V W X Y Z