Song name
# A B C D E F G H I J K L M N O P Q R S T U V W X Y Z

Paramore - Let The Flames Begin Live tab

Ok so there was this sick intro that they played on the final riot tour so here it is. 
I also added the intro they played before the final riot one so you can
play that one if you like it better and to not make another tab for it.


Final Riot:  http://www.youtube.com/watch?v=95UGLm1G0Lk&feature=related
e|---------------------------------------------------|\
B|---7-(x32)---10-(x16)---12-(x8)---14-(x8)----------| \
G|---------------------------------------------------|  \X3
D|---------------------------------------------------|  /
A|---------------------------------------------------| /
E|---------------------------------------------------|/

then
e|---------------------------------------------------|
B|---7-(x32)---10-(x16)---12~~~~~~--14~~~~~~---------|
G|---------------------------------------------------| 
D|---------------------------------------------------| 
A|---------------------------------------------------| 
E|---------------------------------------------------|


Before Final Riot: http://www.youtube.com/watch?v=BUek-ealR9w&feature=related
e|-----------9----9------------------------------------|
B|-----7---7---------7---------------------------------|
G|---9---9------9------9-------------------------------|
D|-----------------------------------------------------|
A|-----------------------------------------------------|
E|-----------------------------------------------------|


e|-----------7----7------------------------------------|
B|-----7---7---------7---------------------------------|
G|---9---9------9------9-------------------------------|
D|-----------------------------------------------------|
A|-----------------------------------------------------|
E|-----------------------------------------------------|

e|-----------9----9------------------------------------|
B|-----7---7---------7---------------------------------|
G|---9---9------9------9-------------------------------|
D|-----------------------------------------------------|
A|-----------------------------------------------------|
E|-----------------------------------------------------|


e|---7---7---7---7---7---7---7---7---7~----------------|
B|-----------------------------------------------------|
G|-----9---9---9---9---9---9---9---9-------------------|
D|-----------------------------------------------------|
A|-----------------------------------------------------|
E|-----------------------------------------------------|


(x32):strum that note 32 times
x3:strum whole part 4 times
~:Vibrato
Tap to rate this tab
# A B C D E F G H I J K L M N O P Q R S T U V W X Y Z