Guitaretab - guitar tabs
Song name
# A B C D E F G H I J K L M N O P Q R S T U V W X Y Z

Paramore - Emergency tab

BY f_sario@yahoo.com 
Lucena,Phils...
f_sario@yahoo.com
Cp #-09283150081
SHC(BSN) Lucena

emergency-paramore

GtrI-(e b g d A D)
GtrII-(e b g d A D)
GtrIII-(e b g d A D)extra guitar

Intro-
1.
GtrI
|---------9-----9-----9--------|--------7-----7-----7 ---------------|
|----7------7-----7-----7---7--|-----7-----7-----7-----7----7--------|
|--9---9-----9-----9------9----|---9---9-----9-----9------9----------|
|------------------------------|-------------------------------------|2x
|------------------------------|-------------------------------------|
|------------------------------|-------------------------------------|

2.
GtrI
|------------------------------|-------------------------------------|
|-9/10-101010--10-10-10-10/999-|---9/10-101010--10-10-10-10/999------|
|-9/11-111111--11-11-11-11/999-|---9/11-111111--11-11-11-11/999------|
|-x-x--x-x-x---x--x--x--x--xxx-|---x-x--x-x-x---x--x--x--x--xxx------|
|-7/9--9-9-9---9--9--9--9/-777-|---7/9--9-9-9---9--9--9--9/-777------|
|------------------------------|-------------------------------------|
GtrII
|------------------------------|-------------------------------------|
|------------------------------|-------------------------------------|
|------------------------------|-------------------------------------|
|-2/4--444---4--4--4--4---222--|----2/4--444---4--4--4--4---222------|
|-2/4--444---4--4--4--4---222--|----2/4--444---4--4--4--4---222------|
|-2/4--444---4--4--4--4---222--|----2/4--444---4--4--4--4---222------|

Verse-
this is an emergency.........
GtrI
|---------9-----9-----9--------|--------7-----7-----7 ---------------|
|----7------7-----7-----7---7--|-----7-----7-----7-----7----7--------|
|--9---9-----9-----9------9----|---9---9-----9-----9------9----------|
|------------------------------|-------------------------------------|
|------------------------------|-------------------------------------|
|------------------------------|-------------------------------------|
GtrII
|------------------------------|-------------------------------------|
|------------------------------|-------------------------------------|
|------------------------------|-------------------------------------|
|-0~---------------------------|-------------------------------------|
|-0~---------------------------|-------------------------------------|
|-0~---------------------------|-------------------------------------|

2.
if you....
GtrI
|------------------------------|-------------------------------------|
|-9/10-101010--10-10-10-10/999-|---9/10-101010--10-10-10-10/999------|
|-9/11-111111--11-11-11-11/999-|---9/11-111111--11-11-11-11/999------|
|-x-x--x-x-x---x--x--x--x--xxx-|---x-x--x-x-x---x--x--x--x--xxx------|
|-7/9--9-9-9---9--9--9--9/-777-|---7/9--9-9-9---9--9--9--9/-777------|
|------------------------------|-------------------------------------|
GtrII
|------------------------------|-------------------------------------|
|------------------------------|-------------------------------------|
|------------------------------|-------------------------------------|
|-2/4--444---4--4--4--4---222--|----2/4--444---4--4--4--4---222------|
|-2/4--444---4--4--4--4---222--|----2/4--444---4--4--4--4---222------|
|-2/4--444---4--4--4--4---222--|----2/4--444---4--4--4--4---222------|

Do verse2x
Refrain-
1.
GtrI
|-0-----0-----0-----0-----0----|------0----0-----0-----0-----0-------|
|---0-----0-----0-----0-----0--|---0----0----0-----0-----0-----0-----|
|-----4-----4----4------4----4-|-2--------2----2-----2-----2---------|
|------------------------------|-------------------------------------|
|------------------------------|-------------------------------------|
|------------------------------|-------------------------------------|

or
  U  U  D U U  D U U  D U U D U U  D   D D  U U D U U D U U D U U D U U    
|-12-----12-----12-----12-----12-----|-----12----12----12----12----12------|
|---12-12 -12-12--12-12--12-12--12-12|---12--12----12----12----12----12----|
|------------------------------------|-14------14----14----14----14--------|
|------------------------------------|-------------------------------------|
|------------------------------------|-------------------------------------|
|------------------------------------|-------------------------------------|
GtrII
|--00000~----------------------|--00000~--------------------------|
|--00000~----------------------|--00000~--------------------------|
|--44444~----------------------|--22222~--------------------------|
|--44444~----------------------|--22222~--------------------------|
|--22222~----------------------|--00000~--------------------------|
|------------------------------|----------------------------------|

2.
GtrI
|-----12----12----12----12----12---|----------------------------------|
|---12--12----12----12----12----12-|----------------------------------|
|-14------14----14----14----14-----|----------------------------------|
|----------------------------------|----------------------------------|
|----------------------------------|----------------------------------|
|----------------------------------|----------------------------------|
GtrII
|-00000~---------------------------|------------------------------------|
|-00000~---------------------------|------------------------------------|
|-22222~---------------------------|-4444-6666--------------------------|
|-00000~---------------------------|-xxxx-xxxx--------------------------|
|-00000~---------------------------|-2222-4444--------------------------|
|----------------------------------|------------------------------------|

Chorus-
1.
GtrI
|---12--12---12---12--12--12---12---12--|   ---12~---|
|---------------------------------------|   ---------|
|-14--14---13---13---14--14---13---13---|   ---------|
|---------------------------------------|2x ---------|
|---------------------------------------|   ---------| 
|---------------------------------------|   ---------|

|---12--12---12---12--12--12---12---12--|   --------------------|
|---------------------------------------|   -12---12--12--12----|
|-14--14---13---13---14--14---13---13---|   --------------------|
|---------------------------------------|2x ----14---14--14--14-|
|---------------------------------------|   --------------------| 
|---------------------------------------|   --------------------|

GtrII
|--------------------------------|----------------------------------|
|--------------------------------|----------------------------------|
|--------------------------------|----------------------------------|
|-9999999-0000000-4444444-777777-|--9999999-0000000-4444444-2222222-|
|-9999999-0000000-4444444-777777-|--9999999-0000000-4444444-2222222-|
|-9999999-0000000-4444444-777777-|--9999999-0000000-4444444-2222222-|


2.

GtrI
|---12--12---12---12--12--12---12---12--|   ---12~---|
|---------------------------------------|   ---------|
|-14--14---13---13---14--14---13---13---|   ---------|
|---------------------------------------|2x ---------|
|---------------------------------------|   ---------| 
|---------------------------------------|   ---------|

|---12--12---12---12--12--12---12---12--|   -----------------------|
|---------------------------------------|   -14---14--14---12------|
|-14--14---13---13---14--14---13---13---|   -------------------14~-|
|---------------------------------------|2x ----14---14--14--14----|
|---------------------------------------|   -----------------------| 
|---------------------------------------|   -----------------------|

GtrII
|--------------------------------|----------------------------------|
|--------------------------------|----------------------------------|
|--------------------------------|----------------------------------|
|-9999999-0000000-4444444-777777-|--9999999-0000000-4444444-2222222-|
|-9999999-0000000-4444444-777777-|--9999999-0000000-4444444-2222222-|
|-9999999-0000000-4444444-777777-|--9999999-0000000-4444444-2222222-|

post-chorus-
GtrI
|---------9-----9-----9--------|--------7-----7-----7 ---------------|
|----7------7-----7-----7---7--|-----7-----7-----7-----7----7--------|
|--9---9-----9-----9------9----|---9---9-----9-----9------9----------|
|------------------------------|-------------------------------------|
|------------------------------|-------------------------------------|
|------------------------------|-------------------------------------|
GtrII
|------------------------------|-------------------------------------|
|------------------------------|-------------------------------------|
|------------------------------|-------------------------------------|
|-0~---------------------------|-------------------------------------|
|-0~---------------------------|-------------------------------------|
|-0~---------------------------|-------------------------------------|


verse-

[ Tab from: http://www.guitaretab.com/p/paramore/138321.html ]
GtrI
|------------------------------|-------------------------------------|
|-9/10-101010--10-10-10-10/999-|---9/10-101010--10-10-10-10/999------|
|-9/11-111111--11-11-11-11/999-|---9/11-111111--11-11-11-11/999------|
|-x-x--x-x-x---x--x--x--x--xxx-|---x-x--x-x-x---x--x--x--x--xxx------|
|-7/9--9-9-9---9--9--9--9/-777-|---7/9--9-9-9---9--9--9--9/-777------|
|------------------------------|-------------------------------------|
GtrII
|------------------------------|-------------------------------------|
|------------------------------|-------------------------------------|
|------------------------------|-------------------------------------|
|-2/4--444---4--4--4--4---222--|----2/4--444---4--4--4--4---222------|
|-2/4--444---4--4--4--4---222--|----2/4--444---4--4--4--4---222------|
|-2/4--444---4--4--4--4---222--|----2/4--444---4--4--4--4---222------|


i said we have an emergency
GtrI
|---------9-----9-----9--------|--------7-----7-----7 ---------------|
|----7------7-----7-----7---7--|-----7-----7-----7-----7----7--------|
|--9---9-----9-----9------9----|---9---9-----9-----9------9----------|
|------------------------------|-------------------------------------|
|------------------------------|-------------------------------------|
|------------------------------|-------------------------------------|
GtrII
|------------------------------|-------------------------------------|
|------------------------------|-------------------------------------|
|------------------------------|-------------------------------------|
|-0~---------------------------|-------------------------------------|
|-0~---------------------------|-------------------------------------|
|-0~---------------------------|-------------------------------------|



do verse-

do refrain 

repeat chorus-

refrain

solo-


|-------------------|------------------|-----------9-------|------9--------|
|---------9-10-9----|--------9-10-9----|-10-10/12----12----|-10/12--10-9~--|
|-------9--------9~-|-------9-------9~-|----------------9~-|---------------|
|-7-7/9-------------|-7-7/9------------|-------------------|---------------|
|-------------------|------------------|-------------------|---------------|
|-------------------|------------------|-------------------|---------------|

|-------------------|-----------------------|-17-16-------17-16-----------|
|---------9-10-9----|-10-10/12--14-17-------|-------17----------17--------|
|-------9--------9~-|-----------------14-14-|---------16~---------16-14-13|
|-7-7/9-------------|-----------------------|-----------------------------|
|-------------------|-----------------------|-----------------------------|
|-------------------|-----------------------|-----------------------------|



GtrII
|-----------------------------------------------------------|
|-----------------------------------------------------------|
|--------------------4/6---------9/11----------9/11---------|
|--222222-2-4-444444-x-x-000000~-x-x---000000~-x-x----------|2x
|--222222-2-4-444444-2/4-000000~-7/9---000000~-7/9----------|
|--222222-2-4-444444-----000000~-------000000~--------------|



GtrI
|-0-----0-----0-----0-----0----|------0----0-----0-----0-----0-------|
|---0-----0-----0-----0-----0--|---0----0----0-----0-----0-----0-----|
|-----4-----4----4------4----4-|-2--------2----2-----2-----2---------|
|------------------------------|-------------------------------------|
|------------------------------|-------------------------------------|
|------------------------------|-------------------------------------|


or
  U  U  D U U  D U U  D U U D U U  D   D D  U U D U U D U U D U U D U U 
|-12-----12-----12-----12-----12-----|-----12----12----12----12----12------|
|---12-12 -12-12--12-12--12-12--12-12|---12--12----12----12----12----12----|
|------------------------------------|-14------14----14----14----14--------|
|------------------------------------|-------------------------------------|
|------------------------------------|-------------------------------------|
|------------------------------------|-------------------------------------|
GtrII
|-----------------------------------------------------------|
|-----------------------------------------------------------|
|-----------------------------------------------------------|
|-2~-----------------4~-------------------------------------|
|-2~-----------------4~-------------------------------------|
|-2~-----------------4~-------------------------------------|

then- 

GtrI
|---------9-----9-----9--------|--------7-----7-----7 ---------------|
|----7------7-----7-----7---7--|-----7-----7-----7-----7----7--------|
|--9---9-----9-----9------9----|---9---9-----9-----9------9----------|
|------------------------------|-------------------------------------|
|------------------------------|-------------------------------------|
|------------------------------|-------------------------------------|





Repeat Chorus-

Chorus-
1.


GtrI
|---12--12---12---12--12--12---12---12--|   ---12~---|
|---------------------------------------|   ---------|
|-14--14---13---13---14--14---13---13---|   ---------|
|---------------------------------------|2x ---------|
|---------------------------------------|   ---------| 
|---------------------------------------|   ---------|

|---12--12---12---12--12--12---12---12--|   --------------------|
|---------------------------------------|   -12---12--12--12----|
|-14--14---13---13---14--14---13---13---|   --------------------|
|---------------------------------------|2x ----14---14--14--14-|
|---------------------------------------|   --------------------| 
|---------------------------------------|   --------------------|


GtrII
|--------------------------------|----------------------------------|
|--------------------------------|----------------------------------|
|--------------------------------|----------------------------------|
|-9999999-0000000-4444444-777777-|--9999999-0000000-4444444-2222222-|
|-9999999-0000000-4444444-777777-|--9999999-0000000-4444444-2222222-|
|-9999999-0000000-4444444-777777-|--9999999-0000000-4444444-2222222-|

GtrIII
|---------------------------------------|   ---12~---|
|-14--14--12--12---14--14--12--12-------|   ---------|
|---------------------------------------|   ---------|
|---14--14--14--14---14--14--14--14-----|2x ---------|
|---------------------------------------|   ---------| 
|---------------------------------------|   ---------|

|---------------------------------------|   -12~-~--------------|
|-14--14--12--12---14--14--12--12-------|   -------15-14-12~/---|
|---------------------------------------|   --------------------|
|---14--14--14--14---14--14--14--14-----|2x --------------------|
|---------------------------------------|   --------------------| 
|---------------------------------------|   --------------------|

2.

GtrI
|---12--12---12---12--12--12---12---12--|   ---12~---|
|---------------------------------------|   ---------|
|-14--14---13---13---14--14---13---13---|   ---------|
|---------------------------------------|2x ---------|
|---------------------------------------|   ---------| 
|---------------------------------------|   ---------|

|---12--12---12---12--12--12---12---12--|   -----------------------|
|---------------------------------------|   -14---14--14---12------|
|-14--14---13---13---14--14---13---13---|   -----------------------|
|---------------------------------------|2x ----14---14--14--14----|
|---------------------------------------|   -----------------------| 
|---------------------------------------|   -----------------------|


GtrII
|--------------------------------|----------------------------------|
|--------------------------------|----------------------------------|
|--------------------------------|----------------------------------|
|-9999999-0000000-4444444-777777-|--9999999-0000000-4444444-2222222-|
|-9999999-0000000-4444444-777777-|--9999999-0000000-4444444-2222222-|
|-9999999-0000000-4444444-777777-|--9999999-0000000-4444444-2222222-|

GtrIII
|---------------------------------------|   ---12~---|
|-14--14--12--12---14--14--12--12-------|   ---------|
|---------------------------------------|   ---------|
|---14--14--14--14---14--14--14--14-----|2x ---------|
|---------------------------------------|   ---------| 
|---------------------------------------|   ---------|

|---------------------------------------|   -12~~~~~/14~~~~~~---|
|-14--14--12--12---14--14--12--12-------|   --------------------|
|---------------------------------------|   --------------------|
|---14--14--14--14---14--14--14--14-----|2x --------------------|
|---------------------------------------|   --------------------| 
|---------------------------------------|   --------------------|
Outro-
GtrI
|---------9-----9-----9--------|--------7-----7-----7 ---------------|--12~-|
|----7------7-----7-----7---7--|-----7-----7-----7-----7----7--------|--12~-|
|--9---9-----9-----9------9----|---9---9-----9-----9------9----------|--14~-|
|------------------------------|-------------------------------------|--12~-|
|------------------------------|-------------------------------------|------|
|------------------------------|-------------------------------------|------|
GtrII
|---------------------------------------------------------------------------|
|---------------------------------------------------------------------------|
|------------------------------------------------------------------------4~-|
|--0-----0------0------0------0-------0-------0-------0-------0----------4~-|
|--0-----0------0------0------0-------0-------0-------0-------0----------4~-|
|--0-----0------0------0------0-------0-------0-------0-------0----------4~-|  

U-up  picking
D-down  picking
Related for Emergency tab
Emergency chords by Paramore