Song name
# A B C D E F G H I J K L M N O P Q R S T U V W X Y Z

Paramore - Conspiracy tab

Help us improve GuitareTab! Take a short survey!
song; Conspiracy
band; Paramore
CD; All We Know Is Falling
tabbed by; Xb4mvluvrX

if u have ne ?s then message me or comment... rate it plz?
this is my first tab and i really tried on it

UPDATED!!! i forgot anothr part to Guitar 3's verse sorry...

========
Guitar 1
========

Intro 0:07

e|-151515121212-------------------|------------|
B|-------------101010101010h11p10-|-11-10------|
G|--------------------------------|-------10~--|
D|--------------------------------|------------|
A|--------------------------------|------------|
D|--------------------------------|------------|

(this comes in rite after the first intro part)
0:13

e|--------------------------------------------------------------------------|
B|-------101010101010101010101010101010-10/13\555555555-5~------------------|
G|-------101010101010101010101010101010-10/12\555555555-5~-141414\99-9/10\5-|
D|XXX(5)--8-8-8-8-8-8-8-8-8-8-8-8-8-8-8--8/10\333333333-0~--x-x-x-xx-x--x-x-|
A|XXX(5)--8-8-8-8-8-8-8-8-8-8-8-8-8-8-8--8/10\333333333-0~-121212\77-7/-8\3-|
D|XXX(5)--8-8-8-8-8-8-8-8-8-8-8-8-8-8-8--8/10\333333333-0~------------------|

Verse 1   0:40

e|-------12-------12--------12--------12------12-|------13-------13--------13-------13------13--|
B|----13--------13--------13--------13-----------|----13-------13--------13--------13-----------|
G|-10--------10--------10--------10--------------|-10--------10--------10--------10-------------|
D|-----------------------------------------------|----------------------------------------------|
A|-----------------------------------------------|----------------------------------------------|
D|-----------------------------------------------|----------------------------------------------|

Chorus 1    0:54
e|--------------------------------------------------------------------|
B|-101010101010101010101010101010-10/13\555555555-5~------------------|
G|-101010101010101010101010101010-10/12\555555555-5~-141414\99-9/10\5-|
D|--8-8-8-8-8-8-8-8-8-8-8-8-8-8-8--8/10\333333333-0~--x-x-x-xx-x--x-x-|
A|--8-8-8-8-8-8-8-8-8-8-8-8-8-8-8--8/10\333333333-0~-121212\77-7/-8\3-|
D|--8-8-8-8-8-8-8-8-8-8-8-8-8-8-8--8/10\333333333-0~------------------|

e|---------------------------------------------------------------------|
B|-101010101010101010101010101010-10/13\555555555-5~-------------------|
G|-101010101010101010101010101010-10/12\555555555-5~-141414\99-9/10\13-|
D|--8-8-8-8-8-8-8-8-8-8-8-8-8-8-8--8/10\333333333-0~--x-x-x-xx-x--x--x-|
A|--8-8-8-8-8-8-8-8-8-8-8-8-8-8-8--8/10\333333333-0~-121212\77-7/-8\11-|
D|--8-8-8-8-8-8-8-8-8-8-8-8-8-8-8--8/10\333333333-0~-------------------|

Verse 2   1:33

e|------12------12-------12-------12------12-|-----13-------13--------13-------13------13--|
B|---13-------13-------13-------13-----------|---13-------13--------13--------13-----------|
G|-10-------10-------10-------10-------------|-10-------10--------10--------10-------------|
D|-------------------------------------------|---------------------------------------------|
A|-------------------------------------------|---------------------------------------------|
D|-------------------------------------------|---------------------------------------------|x2

e|-----15------15------15------15--------12-|-----17------17------17------17------17-----|
B|---13------13------13------13-------------|---15------15------15------15---------------|
G|-10------10------10------10---------------|-14------14------14------14-----------------|
D|------------------------------------------|--------------------------------------------|
A|------------------------------------------|--------------------------------------------|
D|------------------------------------------|--------------------------------------------|

Chorus 2  1:46

e|--------------------------------------------------------------------|
B|-101010101010101010101010101010-10/13\555555555-5~------------------|
G|-101010101010101010101010101010-10/12\555555555-5~-141414\99-9/10\5-|
D|--8-8-8-8-8-8-8-8-8-8-8-8-8-8-8--8/10\333333333-0~--x-x-x-xx-x--x-x-|
A|--8-8-8-8-8-8-8-8-8-8-8-8-8-8-8--8/10\333333333-0~-121212\77-7/-8\3-|
D|--8-8-8-8-8-8-8-8-8-8-8-8-8-8-8--8/10\333333333-0~------------------|

e|--------------------------------------------------------------------|
B|-101010101010101010101010101010-10/13\555555555-5~------------------|
G|-101010101010101010101010101010-10/12\555555555-5~-141414\99-9/10\9-|
D|--8-8-8-8-8-8-8-8-8-8-8-8-8-8-8--8/10\333333333-0~--x-x-x-xx-x--x-x-|
A|--8-8-8-8-8-8-8-8-8-8-8-8-8-8-8--8/10\333333333-0~-121212\77-7/-8\7-|
D|--8-8-8-8-8-8-8-8-8-8-8-8-8-8-8--8/10\333333333-0~------------------|

Interlude  2:26

e|-151515--------------------------151515---------------------------|
B|-------171717--------------------------171717---------------------|
G|-------------141414141414h15p1414------------141414141414h15p1414-|
D|------------------------------------------------------------------|
A|------------------------------------------------------------------|
D|------------------------------------------------------------------|

e|-151515------------151515------------171717------------171717-------------|
B|-------171717------------171717------------151515------------151515-------|
G|-------------141414------------141414------------141414------------141414-|
D|--------------------------------------------------------------------------|
A|--------------------------------------------------------------------------|
D|--------------------------------------------------------------------------|

e|-151515------------151515------------151515------------151515-------------|
B|-------171717------------171717------------171717------------171717-------|
G|-------------141414------------141414------------141414------------141414-|
D|--------------------------------------------------------------------------|
A|--------------------------------------------------------------------------|
D|--------------------------------------------------------------------------|

e|-151515------------151515--------------|-17------------|
B|-------171717------------171717--------|----15-----15\-|
G|-------------141414------------141414--|-------14~-14\-|
D|---------------------------------------|---------------|
A|---------------------------------------|---------------|
D|---------------------------------------|---------------|

Chorus 3   2:53

e|--------------------------------------------------------------------|
B|-101010101010101010101010101010-10/13\555555555-5~------------------|
G|-101010101010101010101010101010-10/12\555555555-5~-141414\99-9/10\5-|
D|--8-8-8-8-8-8-8-8-8-8-8-8-8-8-8--8/10\333333333-0~--x-x-x-xx-x--x-x-|
A|--8-8-8-8-8-8-8-8-8-8-8-8-8-8-8--8/10\333333333-0~-121212\77-7/-8\3-|
D|--8-8-8-8-8-8-8-8-8-8-8-8-8-8-8--8/10\333333333-0~------------------|

e|-------------------------------------------------------------|
B|-101010101010101010101010101010-10/13\555555555-5~-----------|
G|-101010101010101010101010101010-10/12\555555555-5~-141414\99-|
D|--8-8-8-8-8-8-8-8-8-8-8-8-8-8-8--8/10\333333333-0~--x-x-x-xx-|
A|--8-8-8-8-8-8-8-8-8-8-8-8-8-8-8--8/10\333333333-0~-121212\77-|
D|--8-8-8-8-8-8-8-8-8-8-8-8-8-8-8--8/10\333333333-0~-----------|

Outro     3:26

e|-151515121212-------------------|------------|
B|-------------101010101010h11p10-|-11-10------|
G|--------------------------------|-------10~--|
D|--------------------------------|------------|
A|--------------------------------|------------|
D|--------------------------------|------------|


========
Guitar 2
========

Intro  0:01

e|------8-------8----------------------|------0-------0--------------------------|
B|--------10------10----10----10----10-|--------10------10----10----10----10-----|
G|---10------10------10----10----10----|---10------10------10----10----10--------|
D|-8-----------------------------------|-0---------------------------------------|
A|-------------------------------------|-----------------------------------------|
D|-------------------------------------|-----------------------------------------|

(this part comes rite after the first intro part)

e|------8-------8----------------------|-----------|
B|--------10------10----10----10----10-|-11-10-----|
G|---10------10------10----10----10----|-------10~-|
D|-8-----------------------------------|-----------|
A|-------------------------------------|-----------|
D|-------------------------------------|-----------|

(this part comes rite after the second intro part)

e|-------------------------------------------------------|
B|-1010101010101010101010101010-10/13\555555555-55555555-|
G|-1010101010101010101010101010-10/12\555555555-55555555-|
D|--8-8-8-8-8-8-8-8-8-8-8-8-8-8--8/10\333333333-00000000-|
A|--8-8-8-8-8-8-8-8-8-8-8-8-8-8--8/10\333333333-00000000-|
D|--8-8-8-8-8-8-8-8-8-8-8-8-8-8--8/10\333333333-00000000-|

Verse 1   0:27

e|------------------------------------------------------------|
B|-1010101010--101010101010--101010101010--101010101010101010-|
G|-1010101010--101010101010--101010101010--101010101010101010-|
D|--8-8-8-8-8---8-8-8-8-8-8---8-0-0-0-0-0---0-0-0-0-0-0-0-0-0-|
A|--8-8-8-8-8---8-8-8-8-8-8---8-0-0-0-0-0---0-0-0-0-0-0-0-0-0-|
D|--8-8-8-8-8---8-8-8-8-8-8---8-0-0-0-0-0---0-0-0-0-0-0-0-0-0-|
    x x x x       x x x x       x x x x       x x x x

Chorus 1   0:54

x2
e|-------------------------------------------------------|
B|-1010101010101010101010101010-10/13\555555555-55555555-|
G|-1010101010101010101010101010-10/12\555555555-55555555-|
D|--8-8-8-8-8-8-8-8-8-8-8-8-8-8--8/10\333333333-00000000-|
A|--8-8-8-8-8-8-8-8-8-8-8-8-8-8--8/10\333333333-00000000-|
D|--8-8-8-8-8-8-8-8-8-8-8-8-8-8--8/10\333333333-00000000-|

Verse 2   1:20

e|------------------------------------------------------------|
B|-1010101010--101010101010--101010101010--101010101010101010-|
G|-1010101010--101010101010--101010101010--101010101010101010-|
D|--8-8-8-8-8---8-8-8-8-8-8---8-0-0-0-0-0---0-0-0-0-0-0-0-0-0-|
A|--8-8-8-8-8---8-8-8-8-8-8---8-0-0-0-0-0---0-0-0-0-0-0-0-0-0-|
D|--8-8-8-8-8---8-8-8-8-8-8---8-0-0-0-0-0---0-0-0-0-0-0-0-0-0-|
    x x x x       x x x x       x x x x       x x x x

e|------------------------------------------------------------|
B|-1010101010--101010101010--101010101010--101010101010101010-|
G|-1010101010--101010101010--101010101010--101010101010101010-|
D|--8-8-8-8-8---8-8-8-8-8-8---8-0-0-0-0-0---0-0-0-0-0-0-0-0-0-|
A|--8-8-8-8-8---8-8-8-8-8-8---8-0-0-0-0-0---0-0-0-0-0-0-0-0-0-|
D|--8-8-8-8-8---8-8-8-8-8-8---8-0-0-0-0-0---0-0-0-0-0-0-0-0-0-|
    x x x x       x x x x       x x x x       x x x x x x x x

Chorus 2   1:46

x2
e|-------------------------------------------------------|
B|-1010101010101010101010101010-10/13\555555555-55555555-|
G|-1010101010101010101010101010-10/12\555555555-55555555-|
D|--8-8-8-8-8-8-8-8-8-8-8-8-8-8--8/10\333333333-00000000-|
A|--8-8-8-8-8-8-8-8-8-8-8-8-8-8--8/10\333333333-00000000-|
D|--8-8-8-8-8-8-8-8-8-8-8-8-8-8--8/10\333333333-00000000-|


Interlude   2:13

e|----------------------------------------------------------|
B|-----------------1010101010101010101010101010101010101010-|
G|-77777777777777771010101010101010101010101010101010101010-|
D|-5555555555555555-8-8-8-8-8-8-8-8-8-8-8-8-8-8-8-8-0-0-0-0-|
A|-5555555555555555-8-8-8-8-8-8-8-8-8-8-8-8-8-8-8-8-0-0-0-0-|
D|-5555555555555555-8-8-8-8-8-8-8-8-8-8-8-8-8-8-8-8-0-0-0-0-|

e|----------------------------------------------------------|
B|-10101010101010101010101010101010101010101010101010101010-|
G|-10101010101010101010101010101010101010101010101010101010-|
D|--0-0-0-0-0-0-0-0-0-0-0-0-8-8-8-8-8-8-8-8-8-8-8-8-8-8-8-8-|
A|--0-0-0-0-0-0-0-0-0-0-0-0-8-8-8-8-8-8-8-8-8-8-8-8-8-8-8-8-|
D|--0-0-0-0-0-0-0-0-0-0-0-0-8-8-8-8-8-8-8-8-8-8-8-8-8-8-8-8-|

(distortion)
e|-----------------------------------------------------------------|
B|-----------------------------------------------------------------|
G|-----------------------------------------------------------------|
D|-555555555555555588888888888888800000000000000008888888888888888-|
A|-555555555555555588888888888888800000000000000008888888888888888-|
D|-555555555555555588888888888888800000000000000008888888888888888-|

e|------------------------------------------------10~-1010~-\--|
B|------------------------------------------------10~-1010~-\--|
G|------------------------------------------------10~-1010~-\--|
D|-55555555555555558888888888888880000000000000000-8~--8-8~-\--|
A|-55555555555555558888888888888880000000000000000-8~--8-8~-\--|
D|-55555555555555558888888888888880000000000000000-8~--8-8~-\--|

Chorus 3   2:53

e|-------------------------------------------------------|
B|-1010101010101010101010101010-10/13\555555555-55555555-|
G|-1010101010101010101010101010-10/12\555555555-55555555-|
D|--8-8-8-8-8-8-8-8-8-8-8-8-8-8--8/10\333333333-00000000-|
A|--8-8-8-8-8-8-8-8-8-8-8-8-8-8--8/10\333333333-00000000-|
D|--8-8-8-8-8-8-8-8-8-8-8-8-8-8--8/10\333333333-00000000-|

e|-------------------------------------------------------|
B|-1010101010101010101010101010-10/13\555555555----------|
G|-1010101010101010101010101010-10/12\555555555----------|
D|--8-8-8-8-8-8-8-8-8-8-8-8-8-8--8/10\333333333-00-------|
A|--8-8-8-8-8-8-8-8-8-8-8-8-8-8--8/10\333333333-00-------|
D|--8-8-8-8-8-8-8-8-8-8-8-8-8-8--8/10\333333333-00-------|

Outro   3:20

e|------8-------8----------------------|------0-------0--------------------------|
B|--------10------10----10----10----10-|--------10------10----10----10----10-----|
G|---10------10------10----10----10----|---10------10------10----10----10--------|
D|-8-----------------------------------|-0---------------------------------------|
A|-------------------------------------|-----------------------------------------|
D|-------------------------------------|-----------------------------------------|

e|------8-------8----------------------|-----------|
B|--------10------10----10----10----10-|-11-10-----|
G|---10------10------10----10----10----|-------10~-|
D|-8-----------------------------------|-----------|
A|-------------------------------------|-----------|
D|-------------------------------------|-----------|

========
Guitar 3
========

it comes in on Verse 2 at 1:33

e|----------------------------------------------------|
B|----------------------------------------------------|
G|-10101010-5-/10101010-5-/--12121212/-12/14-14-15-14-|
D|--x-x-x-x-x---x-x-x-x-x-----x-x-x-x---x--x--x--x--x-|
A|--8-8-8-8-3---8-8-8-8-3----10101010/-10/12-12-13-12-|
D|----------------------------------------------------|

e|----------------------------------------------------|
B|----------------------------------------------------|
G|-10101010-5-/10101010-5-/--12121212/12/14-15-14-12--|
D|--x-x-x-x-x---x-x-x-x-x-----x-x-x-x--x--x--x--x--x--|
A|--8-8-8-8-3-/-8-8-8-8-3-/--10101010/10-12-13-12-10--|
D|----------------------------------------------------|


| x Mute note
| / slide up
| \ slide down
| h hammer-on
| p pull-off
| ~ let it ring
| X scrachy-ish sound
Related for Conspiracy tab