Guitaretab - guitar tabs
Song name
# A B C D E F G H I J K L M N O P Q R S T U V W X Y Z

Paramore - Pressure Acoustic tab

Tuning: Drop-D  half-step down (just make sure if you're playing with a friend to
be in the same tuning and drop D)

Part1: G1
e|----------------------------------------------------------------|
B|----------------------------------------------------------------|
G|-11-11-11\9-9-9-14-14-14\11-11-11--11-11-11\9-9-9-6-6-6/7-7-7---|   (x2)
D|--x--x--x-x-x-x--x--x--x--x--x--x--x--x--x-x-x-x--x-x-x-x-x-x---|
A|--9--9--9\7-7-7--12-12-12\9--9--9--9--9--9\7-7-7--4-4-4/5-5-5---|
D|----------------------------------------------------------------|

Part1: G2
(same strumming as P1:G1)
e|-------------------------------------------------|
B|-------------------------------------------------|
G|-------------------------------------------------|    (x2)
D|-9----5----0----4--------------------------------| (The 4 could also be 7)
A|-9(x6)5(x6)0(x6)4(x6)----------------------------|      4               7
D|-9----5----0----4--------------------------------|      4               7




Part2: G1&2
e|---------------------------------------------------------|
B|---------------------------------------------------------|
G|---------------------------------------------------------|
D|-99-x-9\55-x-5\00-x-0-44-x-4/99-x-9\55-x-5\00-x-0-44-x-4-|
A|-99-x-9\55-x-5\00-x-0-44-x-4/99-x-9\55-x-5\00-x-0-44-x-4-|
D|-99-x-9\55-x-5\00-x-0-44-x-4/99-x-9\55-x-5\00-x-0-44-x-4-|
   ..   . ..   . ..   . ..   . ..   . ..   . ..   . ..   




Part3: G2
e|---------------------------------------------------------| (When you play
B|---------------------------------------------------------| the open chords
G|---------------------------------------------------------| be sure to tap
D|-999-99\555-55\000-00-444-44/999-99\555-55\000-00-444-44-| your strings to
A|-999-99\555-55\000-00-444-44/999-99\555-55\000-00-444-44-| add the staccato
D|-999-99\555-55\000-00-444-44/999-99\555-55\000-00-444-44-| feel to it)

Part3: G1 (Option 1) (credit to the other tab I added a bit)
e|----------------------------------------5--|
B|-------------------------------------------|
G|-11-11-11-1111/9-9-9-99/7-7-7-77/6-6-6h7--7|
D|--x--x--x--x-x/x-x-x-xx/x-x-x-xx/x-x-------|
A|--9--9--9--9-9/7-7-7-77/5-5-5-55/4-4-------|
D|-------------------------------------------|

e|------------------------------------5--|
B|---------------------------------------|
G|-11-11-11-1111/9-9-9-99/7-7-7-77-6h7--7|
D|--x--x--x--x-x/x-x-x-xx/x-x-x-xx-------|
A|--9--9--9--9-9/7-7-7-77/5-5-5-55-------|
D|---------------------------------------|

Part3: G1 (Option 2) (I only play this when I'm playing with some one else)
e|-5-5-5-55--5-5-5-55--5-5-5-55--5-5----5---|
B|-7-7-7-77--5-5-5-55--5-5-5-55--5-5--------| (Play with staccato aka
G|-7-7-7-77--7-7-7-77--7-7-7-77--6-6-6h7--7-|  chopped notes)
D|------------------------------------------|
A|------------------------------------------|
D|------------------------------------------|
[ Tab from: http://www.guitaretab.com/p/paramore/154140.html ]
e|-5-5-5-55--5-5-5-55--5-5-5-55------5---|
B|-7-7-7-77--5-5-5-55--5-5-5-55----------| 
G|-7-7-7-77--7-7-7-77--7-7-7-77---6h7--7-|  
D|---------------------------------------|
A|---------------------------------------|
D|---------------------------------------|





Chorus: G1&2 (Many strumming patterns for this just be sure you and your partner do the same one)
e|---------------------------------------------| \
B|---------------------------------------------|  \
G|-77777777-77777777-77777777-7777--11-11-11-11|   \ 
D|-77777777-77777777-77777777-7777---x--x--x--x|    \
A|-55555555-00000000-44444444-5555---9--9--9--9|     \
D|-55555555-00000000-44444444-5555-------------|      \ (x2)
                                                      /
e|-------------------------------------|             /
B|-------------------------------------|            / 
G|-77777777-77777777-77777777-77777777-|           /
D|-77777777-77777777-77777777-77777777-|          /
A|-55555555-00000000-44444444-55555555-|         /
D|-55555555-00000000-44444444-55555555-|________/


___________________
|REPEAT PART 2 & 3|
|      THEN       |
|     CHORUS      |
|_THEN PART 1(x3)_|




Part 4: G2
e|------------------------------------------------| 
B|------------------------------------------------|
G|------------------------------------------------| (x2)
D|------------------------------------------------|
A|-9-9-9--9-7--5-5-5--5-7--0-0-0--0-2--4-4-4--4-7-|
D|-9-9-9--9-7--5-5-5--5-7--0-0-0--0-2--4-4-4--4-7-|
   . . .  . .  . . .  . .  . . .  . .  . . .  . .

e|------------------------------------------------| 
B|------------------------------------------------|
G|------------------------------------------------| (x2)
D|-9-9-9--9-7--5-5-5--5-7--0-0-0--0-2--4-4-4--4-7-|(On the 2nd repeat strum
A|-9-9-9--9-7--5-5-5--5-7--0-0-0--0-2--4-4-4--4-7-| the 4's out listen to the
D|-9-9-9--9-7--5-5-5--5-7--0-0-0--0-2--4-4-4--4-7-| song on youtube or
                                                    something you'll get it)

Part 4: G1 (credit other tab, I changed it a bit alternate picking to keep up
with the other guitar, don't be a noob)
e|-----------9-----------------------9------------|\
B|----10--------10-----10-----10--------10-----10-| \ 
G|--------7---------7-------------7---------7-----|  \
D|-9-----------------------9----------------------|   \ (x2.5)
A|------------------------------------------------|   / (Repeat the whole 
D|------------------------------------------------|  /   twice then end on
                                                    /    just the top section
e|----------9----------------------9----------|    /    listen to the song)
B|---10--------10-----10-----10-------10----10|   /
G|-------7---------7-------------7--------7---|  / 
D|-0------------------------------------------| /
A|------------------------9-------------------|/
D|--------------------------------------------|





REPEAT CHORUS IT'S A LITTLE DIFFERENT JUST LISTEN TO THE SONG



THE END
Questions? Comments? @deokun@hotmail.com
Related for Pressure Acoustic tab
×
Pressure Acoustic