Song name
# A B C D E F G H I J K L M N O P Q R S T U V W X Y Z

Paramore - Decoy Live tab

Help us improve GuitareTab! Take a short survey!
Paramore
Decoy Live
The Final RIOT!
Tuning: DROP C# (not the tuning they used, but 
the song gets a lot easier to play and sounds the same)

// GUITAR 1 (Josh)
INTRO
|----------------------------------------|
|----------------------------------------|
|------------11-11-11----------11-11-11--|
|--6--9-9-9--x--x--x--4-4-6-6--x--x--x---| x3
|--6--9-9-9--9--9--9--4-4-6-6--9--9--9---|
|--6--9-9-9-----------4-4-6-6------------|

|----------------------|
|----------------------|
|------------11-11-11--|
|--6--9-9-9--x--x--x---| 
|--6--9-9-9--9--9--9---|
|--6--9-9-9------------|

VERSE 1
|--------------------9-----------|
|--------------------------------|
|--------------------------------|
|--------8-9-6------------8-9-6--|
|--6-9----------6-9--------------|
|--------------------------------|

|---------------------------------------------------------------------|
|---------------------------------------------------------------------|
|---------------------11---------------11-----------------------------|
|----------8-9-6---13-------8-9-6---13-------8-9-6---x-x-x-x-x-x-x-x--|
|--6-9-9---------------------------------------------x-x-x-x-x-x-x-x--|
|----------------------------------------------------x-x-x-x-x-x-x-x--|

CHORUS
|-----------------------------------------|
|--9-9-9-9-9-9-9-9s12--9-9-9-9-7-7-7-7-7--|
|--x-x-x-x-x-x-x-x--x--x-x-x-x-x-x-x-x-x--|
|--6-6-6-6-6-6-6-6s-9--6-6-6-6-4-4-4-4-4--| x2
|-----------------------------------------|
|-----------------------------------------|

|-----------|
|-----------|
|-----------|
|--x-x-x-x--|
|--x-x-x-x--|
|--x-x-x-x--|

POST-CHORUS
|----------------------------------------|
|----------------------------------------|
|------------11-11-11----------11-11-11--|
|--6--9-9-9--x--x--x--4-4-6-6--x--x--x---| x3
|--6--9-9-9--9--9--9--4-4-6-6--9--9--9---|
|--6--9-9-9-----------4-4-6-6------------|

|----------------------|
|----------------------|
|------------11-11-11--|
|--6--9-9-9--x--x--x---| 
|--6--9-9-9--9--9--9---|
|--6--9-9-9------------|

VERSE 2
|------------------------------|
|------------------------------|
|------------------------------|
|--------8-9-6----------8-9-6--|
|--6-9------------6-9----------|
|------------------------------|

|-----------------------------------------------------------|
|-----------------------------------------------------------|
|------------------11---------------------------------------|
|-------8-9-6---13------8-9-6------8-9-6---x-x-x-x-x-x-x-x--|
|--6-9-------------------------6-9---------x-x-x-x-x-x-x-x--|
|------------------------------------------x-x-x-x-x-x-x-x--|

CHORUS
|-----------------------------------------|
|--9-9-9-9-9-9-9-9s12--9-9-9-9-7-7-7-7-7--|
|--x-x-x-x-x-x-x-x--x--x-x-x-x-x-x-x-x-x--|
|--6-6-6-6-6-6-6-6s-9--6-6-6-6-4-4-4-4-4--| x2
|-----------------------------------------|
|-----------------------------------------|

BRIDGE
|--11-----11----11----11-----11----11---------7-----7--7--------|
|-----9------9-----9-----9------9-----9-----7-----7------7------|
|-------9------9-----------9------9-------8-----8----------8-6--|
|---------------------------------------------------------------| x2
|---------------------------------------------------------------|
|---------------------------------------------------------------|

|--11-----11----11----11-----11----11---------7-----7--6---------|
|-----9------9-----9-----9------9-----9-----7-----7----7---7-----|
|-------9------9-----------9------9-------8-----8------6---------|
|-------------------------------------------------------------9--| 
|----------------------------------------------------------------|
|----------------------------------------------------------------|

ENDING
|----------------------------------------|
|----------------------------------------|
|------------11-11-11----------11-11-11--|
|--6--9-9-9--x--x--x--4-4-6-6--x--x--x---| x2
|--6--9-9-9--9--9--9--4-4-6-6--9--9--9---|
|--6--9-9-9-----------4-4-6-6------------|

|------------------------------------------------------------------------------|
|---------------------------------------------------------------------------5--|
|--11-11-11-11-11-11-11-11-11-11-11-11-11-11-11-11-11-11-11-11-11--9----8---4--|
|--x--x--x--x--x--x--x--x--x--x--x--x--x--x--x--x--x--x--x--x--x---x----x---2--| 
|--9--9--9--9--9--9--9--9--9--9--9--9--9--9--9--9--9--9--9--9--9---7----6---2--|
|------------------------------------------------------------------------------|

_________________________

// GUITAR 2 (Taylor)
INTRO
00:07
|----------------------------------------|
|----------------------------------------|
|------------11-11-11----------11-11-11--|
|--6--9-9-9--x--x--x--4-4-6-6--x--x--x---| x2
|--6--9-9-9--9--9--9--4-4-6-6--9--9--9---|
|--6--9-9-9-----------4-4-6-6------------|

VERSE 1
00:18
|----------------------------------------------------|
|--11----12----14---14----16----14---14----14----14--|
|-----13----13---------13----13---------13----13-----|
|----------------------------------------------------|
|----------------------------------------------------|
|----------------------------------------------------|

|---------------------------------------------------------------------|
|--14----16----16---14----14----14---14----16----16---14----14----14--|
|-----13----13---------13----13---------13----13---------13----13-----|
|---------------------------------------------------------------------|
|---------------------------------------------------------------------|
|---------------------------------------------------------------------|

CHORUS
|---------------------------------------------------------------|
|---------------------------------------------------------------|
|---------------------------------------------------------------|
|-6-6-6-6-6-6-6-6-6-6-6-6-6-6-6-2-2-2-2-2-2-2-2-4-4-4-4-4-4-4-4-| x2
|-6-6-6-6-6-6-6-6-6-6-6-6-6-6-6-2-2-2-2-2-2-2-2-4-4-4-4-4-4-4-4-|
|-6-6-6-6-6-6-6-6-6-6-6-6-6-6-6-2-2-2-2-2-2-2-2-4-4-4-4-4-4-4-4-|

|-----------|
|-----------|
|-----------|
|--x-x-x-x--|
|--x-x-x-x--|
|--x-x-x-x--|

POST-CHORUS
|----------------------------------------|
|----------------------------------------|
|------------11-11-11----------11-11-11--|
|--6--9-9-9--x--x--x--4-4-6-6--x--x--x---| x2
|--6--9-9-9--9--9--9--4-4-6-6--9--9--9---|
|--6--9-9-9-----------4-4-6-6------------|

VERSE 2
01:18
|----------------------------------------------------|
|--14----14----14---16----16----16---14----14----14--|
|-----13----13---------13----13---------13----13-----|
|----------------------------------------------------|
|----------------------------------------------------|
|----------------------------------------------------|

|---------------------------------------------------------------------|
|--12----16----16---14----14----14---12----14----14---14----14----14--|
|-----13----13---------13----13---------13----13---------13----13-----|
|---------------------------------------------------------------------|
|---------------------------------------------------------------------|
|---------------------------------------------------------------------|

CHORUS
|---------------------------------------------------------------|
|---------------------------------------------------------------|
|---------------------------------------------------------------|
|-6-6-6-6-6-6-6-6-6-6-6-6-6-6-6-2-2-2-2-2-2-2-2-4-4-4-4-4-4-4-4-| x2
|-6-6-6-6-6-6-6-6-6-6-6-6-6-6-6-2-2-2-2-2-2-2-2-4-4-4-4-4-4-4-4-|
|-6-6-6-6-6-6-6-6-6-6-6-6-6-6-6-2-2-2-2-2-2-2-2-4-4-4-4-4-4-4-4-|

BRIDGE
Doesn't play

ENDING
|---------|
|---------|
|---------|
|--6---6--| 
|--6---6--|
|--6---6--|

|----------------------------------------|
|----------------------------------------|
|------------11-11-11----------11-11-11--|
|--6--9-9-9--x--x--x--4-4-6-6--x--x--x---| x4
|--6--9-9-9--9--9--9--4-4-6-6--9--9--9---|
|--6--9-9-9-----------4-4-6-6------------|

=================
s - slide
x - muted string
=================
Related for Decoy Live tab