Song name
# A B C D E F G H I J K L M N O P Q R S T U V W X Y Z

Paramore - Where The Lines Overlap tab

                  Where The Lines Overlap - Paramore

I'm completely guessing this from their live performances.
But, it sounds reasonably OK.
There's still a few bits that are a bit dodgy, oh well.

Intro:
e|-----------------------------|
B|-----------------------------|
G|-----------------------------|
D|-99999999999-9-99999999999-9-| 
A|-77777777777-6-77777777777-6-|
E|-----------------------------|

Verse:
e|---------------------------------------------------------|
B|---------------------------------------------------------|
G|---------------------------------------------------------|
D|-99999999999-9-99999999999-9-66666666666-4-66666666666-4-| x2
A|-77777777777-6-77777777777-6-44444444444-2-44444444444-2-|
E|---------------------------------------------------------|
  [                       Palm Mute                       ]

Pre-chorus:
e|---|
B|-2-|
G|-2-|
D|-2-|
A|---|
E|---|

Chorus:
e|---------------------------------------------------------|
B|---------------------------------------------------------|
G|-99999999----------99999999----------6666------9999------|
D|-99999999-77777777-99999999-77777777-6666-7777-9999-9999-|
A|-77777777-77777777-77777777-77777777-4444-7777-7777-9999-|
E|----------55555555----------55555555------5555------7777-|

e|-----------------------------------------|
B|-----------------------------------------|
G|-6666------9999------6666------9999------|
D|-6666-7777-9999-9999-6666-7777-9999-9999-|
A|-4444-7777-7777-9999-4444-7777-7777-9999-|
E|------5555------7777------5555------7777-|

Verse:
e|---------------------------------------------------------|
B|---------------------------------------------------------|
G|---------------------------------------------------------|
D|-99999999999-9-99999999999-9-66666666666-4-66666666666-4-| x2
A|-77777777777-6-77777777777-6-44444444444-2-44444444444-2-|
E|---------------------------------------------------------|
  [                       Palm Mute                       ]

Pre-chorus:
e|---------|
B|-2--2----|
G|-2--2--4-|
D|-2--2--4-|
A|-------2-|
E|---------|

Chorus:
e|---------------------------------------------------------|
B|---------------------------------------------------------|
G|-99999999----------99999999----------6666------9999------|
D|-99999999-77777777-99999999-77777777-6666-7777-9999-9999-|
A|-77777777-77777777-77777777-77777777-4444-7777-7777-9999-|
E|----------55555555----------55555555------5555------7777-|

e|-----------------------------------------|
B|-----------------------------------------|
G|-6666------9999------6666------9999------|
D|-6666-7777-9999-9999-6666-7777-9999-9999-|
A|-4444-7777-7777-9999-4444-7777-7777-9999-|
E|------5555------7777------5555------7777-|

Bridge:
e|---------------------------------|
B|---------------------------------|
G|---------------------------------|
D|-66666666-88888888-99999999-7777-| x2
A|-44444444-66666666-77777777-7777-|
E|----------------------------5555-|

e|-----------------------------------------------------|
B|-----------------------------------------------------|
G|-66666666-88888888-99999999------66666666-88888888-9-|
D|-66666666-88888888-99999999-7777-66666666-88888888-9-|
A|-44444444-66666666-77777777-7777-44444444-66666666-7-|
E|----------------------------5555---------------------|

Chorus:
e|---------------------------------------------------|
B|---------------------------------------------------|
G|-9~----------99999999----------6666------9999------|
D|-9~-77777777-99999999-77777777-6666-7777-9999-9999-|
A|-7~-77777777-77777777-77777777-4444-7777-7777-9999-|
E|----55555555----------55555555------5555------7777-|

e|-----------------------------------------|
B|-----------------------------------------|
G|-6666------9999------6666------9999------|
D|-6666-7777-9999-9999-6666-7777-9999-9999-|
A|-4444-7777-7777-9999-4444-7777-7777-9999-|
E|------5555------7777------5555------7777-|

Outro: (I'm still working on the guitar)
e|--------------------|
B|-12-9-7---12-9-7-9--|
G|--------9-----------|
D|--------------------| x6?
A|--------------------|
E|--------------------|
Tap to rate this tab
 
# A B C D E F G H I J K L M N O P Q R S T U V W X Y Z