Guitaretab - guitar tabs
Song name
# A B C D E F G H I J K L M N O P Q R S T U V W X Y Z

Paramore - Misery Business Live tab

This is my first tab, so hope you guys like it.
I listened to the song  a few times and I built this up by ear and it completely fits 
one played at The Final Riot Tour.

Any suggestions? juniper_crane@hotmail.com

e|--------------------------------------------------------------------------|
B|--------------------------------------------------------------------------|
G|--------------------------------------------------------------------------|
D|--13h15-15-15-15-15-15--13h15-15-15-15-15-15-15--13h15-15-15-15-15-15-15--|
A|--------------------------------------------------------------------------|
E|--------------------------------------------------------------------------|

e|-------------------------------------------------------------------------------------------|
B|--14-14-14-14--13-13-13-13-----------------------------------------------------------------|
G|----------------------------------13h15p13--------------13h15p13~-------13h15p13----13h15--|
D|----------------------------13h15----------15p13~-13h15-----------13h15----------15--------|
A|-------------------------------------------------------------------------------------------|
E|-------------------------------------------------------------------------------------------|
[ Tab from: http://www.guitaretab.com/p/paramore/192491.html ]
e|-----------------------------------------------------------------------------|
B|--13-13-13-13-13-13-13-13--16-16-16-16-16-16-16-16--14-14-14-14-14-14-14-14--|
G|-----------------------------------------------------------------------------|
D|-----------------------------------------------------------------------------|
A|-----------------------------------------------------------------------------|
E|-----------------------------------------------------------------------------|

e|-----------------------------------------------------------------------------|
B|--13-13-13-13-13-13-13-13--11-11-11-11-11-11-11-1116--16-16-16-16-16-16-16--|
G|-----------------------------------------------------------------------------|
D|-----------------------------------------------------------------------------|
A|-----------------------------------------------------------------------------|
E|-----------------------------------------------------------------------------|

e|----------------------------------------------------18--20-------------------|
B|--18-18-18-18-18-18-18-18--21-21-21-21-21-21-21-21----------20-20-20-20-20~--|
G|-----------------------------------------------------------------------------|
D|-----------------------------------------------------------------------------|
A|-----------------------------------------------------------------------------|
E|-----------------------------------------------------------------------------|

And  that's it.
Related for Misery Business Live tab