Guitaretab - guitar tabs
Song name
# A B C D E F G H I J K L M N O P Q R S T U V W X Y Z

Paramore - Hallelujah tab

the tabs that already exist arent all completely correct so i thaught id give it a 
shot and i am sure this is 100% correct.
any questions email :alextrayhorn@hotmail.co.uk:

tuning: drop d
            dadgbe  

lengend:
         h - hammer on
         / - slide up
         \ - slide down
         . - palm mute
         x - mute

intro
  guitar 1
e|-7-7-7-9-9-9-11-11-11-14-14-14-14-14-14-14-14--|
b|-------------------------------11-11-11-11-11--|
g|-----------------------------------------------|
d|-----------------------------------------------|
a|-----------------------------------------------| 
d|-----------------------------------------------| play 6 times

after 2 times guitar 2 comes in with this 
e|---------------------------------|-----------------------------|
b|---------------------------------|-----------------------------|
g|-11111111111111111111111111111111|-8-8-8-8-8-8-4-4-4-4-4-4-4-4-|play
d|-9-9-9-9-9-9-9-9-9-9-9-9-9-9-9-9-|-6-6-6-6-6-6-2-2-2-2-2-2-2-2-|  2
a|-9-9-9-9-9-9-9-9-9-9-9-9-9-9-9-9-|-6-6-6-6-6-6-2-2-2-2-2-2-2-2-|  times
d|-9-9-9-9-9-9-9-9-9-9-9-9-9-9-9-9-|-6-6-6-6-6-6-2-2-2-2-2-2-2-2-|


verse

guitar 2
e|-----------------------|---------------------------|
b|-----------------------|---------------------------|
g|-11-11---11------------|-8--8----8----10-10---10---|
d|-9--9----9-------------|-6--6----6----8--8----8----|
a|-9--9----9-------------|-6--6----6----8--8----8----|
d|-9--9----9-------------|-6--6----6----8--8----8----| play 4 times

guitar 1 - after 2 times of guitar 2
e|---------------------7-7-6-6-6-6-|---------------------------------|
b|-----------------7-7-------------|---------------------------------|
g|-4-4-6-6-8-8-9-9-----------------|-4-4-6-6-8-8-9-9-8-8-6-6-8-8-8-8-|
d|---------------------------------|---------------------------------|play
a|---------------------------------|---------------------------------| twice
d|---------------------------------|---------------------------------|

pre-chorus

guitar 1 - intro riff once then play

e|---------14-------14-------14---------\-----------|
b|---10h12----10h12----10h12------------\-----------|
g|--------------------------------------\pick-slide-|
d|--------------------------------------\-----------|
a|--------------------------------------------------|
d|--------------------------------------------------|

guitar 2 - let first chord of verse ring.

chorus

guitar 1 - play intro twice then play

e|-----11-----9------11-----7---|
b|------------------------------|
g|-8/9----8/9----8/9----8/9-----|
d|------------------------------|play
a|------------------------------|twice
d|------------------------------|

guitar 2 - play intro twice the play

e|---------------------------------------------------|
b|---------------------------------------------------|
g|-111111-111111-111111-111111-8---8-x-x-4-----------|
d|-9-9-9--9-9-9--9-9-9--9-9-9--6---6-x-x-2-----------|play
a|-9-9-9--9-9-9--9-9-9--9-9-9--6---6-x-x-2-----------|twice
d|-9-9-9--9-9-9--9-9-9--9-9-9--6---6-x-x-2-let-ring--|

repeat verse

repeat pre-chorus

repeat chorus

bridge
[ Tab from: http://www.guitaretab.com/p/paramore/192772.html ]
guitar 2
                                        ------\                   
e|----------------------------------|          \       
b|----------------------------------|           \       
g|-------------------11----11--1111-|            \      
d|-2-2-2-2-2-2-6-6-6-9-9-9-9-9-9-9--|             \     
a|-2-2-2-2-2-2-6-6-6-9-9-9-9-9-9-9--|              \    
d|-2-2-2-4-4-4-6-6-6-9-9-9-9-9-9-9--|               \   
   . . . . . . . . .   . .   .        palm mute      |    
                                                     |play twice     
e|----------------------------------|                |   
b|----------------------------------|                | 
g|-------------6-----6-----6---6-6--|               /
d|-2-2-2-2-2-2-4-4-4-4-4-4-4-4-4-4--|              / 
a|-2-2-2-2-2-2-4-4-4-4-4-4-4-4-4-4--|             /
d|-2-2-2-4-4-4-4-4-4-4-4-4-4-4-4-4--|            /
   . . . . . .   . .   . .   .        palm mute /
                                               /     
                                        ------/
guitar 1 - on second time

e|----------------------------------|
b|----------------------------------|
g|----------------------6-6-6-4-4-4-|
d|----------------------------------|
a|----------------------------------|
d|----------------------------------|

then plays
e|----------------------------------|
b|----------------------------------|
g|-4-----4-----4-----4-4-4-4--------|
d|---------------------------8-8-8--|
a|----------------------------------|
d|----------------------------------|

guitar 2 - then plays

e|------------------------------------|\
b|------------------------------------| \
g|-4-4-4-4-4-4-8-8-8-1111111111111111-|  \
d|-2-2-2-2-2-2-6-6-6-9-9-9-9-9-9-9-9--|   \
a|-2-2-2-2-2-2-6-6-6-9-9-9-9-9-9-9-9--|    \
d|-2-2-2-4-4-4-6-6-6-9-9-9-9-9-9-9-9--|     \
                                             |play 3 times
e|------------------------------------|     /
b|------------------------------------|    /
g|-4-4-4-4-4-4-6-6-6-6-6-6-6-6-6-6-6--|   /
d|-2-2-2-2-2-2-4-4-4-4-4-4-4-4-4-4-4--|  /
a|-2-2-2-2-2-2-4-4-4-4-4-4-4-4-4-4-4--| /
d|-2-2-2-4-4-4-4-4-4-4-4-4-4-4-4-4-4--|/

guitar 1 

e|---------------------------------|\
b|---------------------------------| \
g|-4-4-4-4-4-4-4-4-6-6-6-6-4-4-4-4-|  \
d|---------------------------------|   \
a|---------------------------------|    \
d|---------------------------------|     \
                                          |play twice
e|---------------------------------|     /
b|---------------------------------|    /
g|-4-4-4-4-------------------------|   /
d|---------8-8-8-8-4-4-4-4-4-4-4-4-|  /
a|---------------------------------| /
d|---------------------------------|/

then play the little solo bit

e|---------------------------------|----/7-----9-----11--12--11\-----|
b|--/7----7----7-------------------|---------------------------------|
g|------------------9-9-9-9-8-8----|---------------------------------|
d|---------------------------------|---------------------------------|
a|---------------------------------|---------------------------------|
d|---------------------------------|---------------------------------|

-drum break-

chorus

then both guitars end with

e|---------------------------------|
g|---------------------------------|
b|--1111-----11--------------------|
d|--9-9------9---------------------|
a|--9-9------9---------------------|
d|--9-9------9-let-ring------------|
          /|\
there is a delay here between the last 2 notes
Related for Hallelujah tab
×
Hallelujah