Song name
# A B C D E F G H I J K L M N O P Q R S T U V W X Y Z

Paramore - Breathe tab

this is the solo part in breathe it's quite easy, sounds nice to me, hope you guys like 
:D pls rate n comment!!

Tuning : e A D G B E (standard)

|-------------------------------------------------------|
|--14(9x)//12(9x)//11(2x)------------------11(2x)-14-11-|
|------------------------10(2x)-11(2x)-13(4x)-----------|
|-------------------------------------------------------|
|-------------------------------------------------------|
|-------------------------------------------------------|

|-----------------16(4x)-14(4x)\\18(5x)~----------------|
|--14(9x)\\18(7x)---------------------------------------|
|-------------------------------------------------------|
|-------------------------------------------------------|
|-------------------------------------------------------|
|-------------------------------------------------------|

PARAMORE ROCKS!!
Tap to rate this tab
# A B C D E F G H I J K L M N O P Q R S T U V W X Y Z