Song name
# A B C D E F G H I J K L M N O P Q R S T U V W X Y Z

Paramore - Misery Business Live tab

-----------------------------------------------------------------
Misery Business Live Final Riot - Paramore
-----------------------------------------------------------------
Tabbed by: FOB182

Tuning: Drop D with some slight distortion.

use this video to play with:  http://www.youtube.com/watch?v=LDhCmAMmpXI

Intro 00:08-00:52
e|---------------------------------------------------------------|
B|---------------------------------------------------------------|
G|---------------------------------------------------------------| x2
D|---------------------------------------------------------------|
A|-----2-4-2-4-----------------2-4-2-4---------------------------|
D|22-2---------00-0-00--0-22-2---------00-0-00-------------------|
  xx x x x x x xx x xx  x xx x x x x x xx x xx

Main Riff  00:52-1:01
e|---------------------------------------------------------------|
B|---------------------------------------------------------------|
G|-----4-6-4-6-----------------4-6-4-6---------------------------| x2
D|66-6---------44-4-44--4-66-6---------44-4-44-------------------|
A|---------------------------------------------------------------|
D|---------------------------------------------------------------|

little fill after the main riff  1:01-1:03
e|---------------------------------------------------------------|
B|---------------------------------------------------------------|
G|---------------------------------------------------------------|
D|22-44-55/6-----------------------------------------------------|
A|---------------------------------------------------------------|
D|---------------------------------------------------------------|
its not right but it sounds good enough.

Verse  1:03-1:14
e|---------------------------------------------------------------|
B|---------------------------------------------------------------|
G|---------------------------------------------------------------| x2
D|---------------------------------------------------------------|
A|-----2-4-2-4-----------------2-4-2-4---------------------------|
D|22-2---------00-0-00--0-22-2---------00-0-00-------------------|
  xx x x x x x xx x xx  x xx x x x x x xx x xx
Other half of the Verse  1:14-1:25
e|---------------------------------------------------------------|
B|------77------77------77---------------------------------------|
G|9 999----9-999---9-999---9-999-777-----------------------------| x2
D|---------------------------------------------------------------|
A|---------------------------------------------------------------|
D|---------------------------------------------------------------|

Pre-Chorus type fill  1:25-1:28
e|---------------------------------------------------------------|
B|---------------------------------------------------------------|
G|---------------------------------------------------------------|
D|6-666666-55555-------------------------------------------------|
A|6-666666-55555-------------------------------------------------|
D|4-444444-33333-------------------------------------------------|
    xxxxxx
Chorus  Part 1  1:28-1:39
e|---------------------------------------------------------------|
B|---------------------------------------------------------------|
G|11-11-11-11-9-9-9-7-14-14--11-11--16-16-14-14------------------| x2
D|11-11-11-11-9-9-9-7-14-14--11-11--16-16-14-14------------------|
A|9--9--9--9--7-7-7-7-12-12--9--9---14-14-12-12------------------|
D|---------------------------------------------------------------|

Chorus Part 2  1:39-1:50
e|---------------------------------------------------------------|
B|---------------------------------------------------------------|
G|11---14--13----14-11---14--------------------------------------|
D|11---14--13----14-11---14-13-----------------------------------|
A|9-x7-12--11-x7-12-9-x7-12-11-x4--16-16-16-16-14----------------|
D|---------------------------------------------------------------|
with delay                         gets faster right here. back to riff

Main riff again.  1:50-1:56
e|---------------------------------------------------------------|
B|---------------------------------------------------------------|
G|-----4-6-4-6-----------------4-6-4-6---------------------------| x2
D|66-6---------44-4-44--4-66-6---------44-4-44-------------------|
A|---------------------------------------------------------------|
D|---------------------------------------------------------------|
                    the second time distort and bend the last note

Verse  1:56-2:07
e|---------------------------------------------------------------|
B|---------------------------------------------------------------|
G|---------------------------------------------------------------| x2
D|---------------------------------------------------------------|
A|-----2-4-2-4-----------------2-4-2-4---------------------------|
D|22-2---------00-0-00--0-22-2---------00-0-00-------------------|
  xx x x x x x xx x xx  x xx x x x x x xx x xx
Other half of the Verse  2:07-2:18
e|---------------------------------------------------------------|
B|------77------77------77---------------------------------------|
G|9 999----9-999---9-999---9-999-777-----------------------------| x2
D|---------------------------------------------------------------|
A|---------------------------------------------------------------|
D|---------------------------------------------------------------|

Pre-Chorus type fill  2:18-2:20
e|---------------------------------------------------------------|
B|---------------------------------------------------------------|
G|---------------------------------------------------------------|
D|6-666666-55555-------------------------------------------------|
A|6-666666-55555-------------------------------------------------|
D|4-444444-33333-------------------------------------------------|
    xxxxxx
Chorus 2:21-2:32
e|---------------------------------------------------------------|
B|---------------------------------------------------------------|
G|11-11-11-11-9-9-9-7-14-14--11-11--16-16-14-14------------------| x2
D|11-11-11-11-9-9-9-7-14-14--11-11--16-16-14-14------------------|
A|9--9--9--9--7-7-7-7-12-12--9--9---14-14-12-12------------------|
D|---------------------------------------------------------------|

Chorus Part 2  2:32-2:42
e|---------------------------------------------------------------|
B|---------------------------------------------------------------|
G|11---14--13----14-11---14--------------------------------------|
D|11---14--13----14-11---14-13-----------------------------------|
A|9-x7-12--11-x7-12-9-x7-12-11-x4--16-16-16-16-14----------------|
D|---------------------------------------------------------------|
with delay                         gets faster right here.

Bridge   Go clean.  2:42-3:04
e|---------------------------------------------------------------|
B|----0----------------------------------------------------------|
G|--9------------------------------------------------------------|x15
D|7--------------------------------------------------------------|
A|---------------------------------------------------------------|
D|---------------------------------------------------------------|

Solo 3:05-3:27
e|---------------------------------------------------------------|
B|---------------------------------------------------------------|
G|---------------------------------------------------------------|
D|--------------------------------12-12-12-12-11-11-11-----------|
A|7-9-9-9-9-9-9-9-7-9-9-9-9-9-9-9--------------------------------|
D|---------------------------------------------------------------|

e|---------------------------------------------------------------|
B|---------------------------------------------------------------|
G|---------------------------------------------------------------|
D|----7-9-7~-----7-9-7~-----7-9-7~-9-11-11-11-11-11-11-11--------|
A|7-9--------7-9--------7-9--------------------------------------|
D|---------------------------------------------------------------|

e|---------------------------------------------------------------|
B|---------------------------------------------------------------|
G|---------------------------------------------------------------|
D|14141414141414-12121212121212-11111111111111-9999999-----------|
A|---------------------------------------------------------------|
D|---------------------------------------------------------------|

e|---------------------------------------------------------------|
B|---------------------------------------------------------------|
G|---------------------------------------------------------------|
D|----------------------------------15-17------------------------|
A|13131313131313-16161616161616-19--------18~~~------------------|
D|---------------------------------------------------------------|

Chorus 3:34-3:44
e|---------------------------------------------------------------|
B|---------------------------------------------------------------|
G|11-11-11-11-9-9-9-7-14-14--11-11--16-16-14-14------------------| x2
D|11-11-11-11-9-9-9-7-14-14--11-11--16-16-14-14------------------|
A|9--9--9--9--7-7-7-7-12-12--9--9---14-14-12-12------------------|
D|---------------------------------------------------------------|

Chorus Part 2  3:44-3:54
e|---------------------------------------------------------------|
B|---------------------------------------------------------------|
G|11---14--13----14-11---14--------------------------------------|
D|11---14--13----14-11---14-13-----------------------------------|
A|9-x7-12--11-x7-12-9-x7-12-11-x4--16-16-16-16-14----------------|
D|---------------------------------------------------------------|
with delay                         gets faster right here.

Main Riff  3:54-4:07
e|---------------------------------------------------------------|
B|---------------------------------------------------------------|
G|-----4-6-4-6-----------------4-6-4-6---------------------------| x2
D|66-6---------44-4-44--4-66-6---------44-4-44~~~----------------|
A|---------------------------------------------------------------|
D|---------------------------------------------------------------|

Tabbed this by ear, anything in other tabs is by complete coincidence, there are only 
three ways to play this song so alot of the notes are the same as other tabs.


| /  slide up
| \  slide down
| h  hammer-on
| p  pull-off
| ~  vibrato
| +  harmonic
| x  Mute note
Tap to rate this tab
 
# A B C D E F G H I J K L M N O P Q R S T U V W X Y Z