Song name
# A B C D E F G H I J K L M N O P Q R S T U V W X Y Z

Paramore - My Heart Live tab

I love the way that they played it off of the Final Riot! so I wanted to tab it to let 
play it too.

This song is played in Open Eb, but I wanted to keep my guitar in open D so I just put a 
on 1.  You can play it in Open Eb the way josh does it from this tab, just move 
down a fret.


Open D with capo on 1
-All frets relative to capo

Intro

D-----0----0----0----0---0---0---------0----0----0----0-------0----0----0-|
A--13---10---10---13---8---8---8/10-10---10---10---10---10/13---10---10---|
F#------------------------------------------------------------------------|
D-------------------------------------------------------------------------|
A-------------------------------------------------------------------------|
D-------------------------------------------------------------------------|

D----0---0---0---------------------|
A--8---8---8-------13-13-----13----|
F#-------------9-9-------9-9----9--|
D----------------------------------|
A----------------------------------|
D----------------------------------|


D--0--0---0--0--0--|
A--0--0---0--0--0--|
F#-0-----13--------|
D--0--6--10--5--6--|
A--0--6--10--5--6--|
D--0--6--10--5--6--|


Verse

D---0--0--0--|
A---0--0--0--|
F#-13--------|
D--10--8--6--|
A--10--8--6--|
D--10--8--6--|


Chorus

D--0--0---0--0--0--|
A--0--0---0--0--0--|
F#-0-----13--------|
D--0--6--10--5--6--|
A--0--6--10--5--6--|
D--0--6--10--5--6--|


Verse 2

D---0--0--0--|
A---0--0--0--|
F#-13--------|
D--10--8--6--|
A--10--8--6--|
D--10--8--6--|


Chorus

D--0--0---0--0--0--|
A--0--0---0--0--0--|
F#-0-----13--------|
D--0--6--10--5--6--|
A--0--6--10--5--6--|
D--0--6--10--5--6--|


Bridge

D---0--0--0--0--|
A---0--0--0--0--|
F#-13-----------|
D--10--0--6--8--|
A--10--0--6--8--|
D--10--0--6--8--|


Bridge 2

"My heat is..."
D--0--0--0--|
A--0--0--0--|
F#----5--3--|repeat until fade-out
D--6--4--2--|
A--6--2--0--|
D--6--------|


Thanks, and enjoy
Let me know what you think: SLeinenbach01@yahoo.com
Tap to rate this tab
# A B C D E F G H I J K L M N O P Q R S T U V W X Y Z