Song name
# A B C D E F G H I J K L M N O P Q R S T U V W X Y Z

Paramore - Misguided Ghosts tab

Intro/Verse

e -------0--------3--------0---------3------------------------------0---|
B ---0h1---1--0h1---1--0h1---1---0h1---1--0h1-0---0h1p0-----0---0h3---1-|
G ---0h2---2--2-2---2--0h2---2---2-2---2--0-0---0---------------0-0-----|
D ---0h2---2--2-2---2--0h2---2---2-2---2--0h2---2--------0h2--2-2-2-----|
A ----------------------------------------0h3---3--------0h2--2-2-2-----|
E ----------------------------------------------------------------------|

Bridge

e ---12--12--10--10--8--8--10--7-------|
B -----8---8---8---8--8--8---8--8------|
G ------9---9---9---9--9--9---9--9-----|
D -------------------------------------| x2
A -------------------------------------|
E -------------------------------------|

Chorus

e ----------------|
B ---8---3--1--1--|
G ---9---4--2--2--|
A ---10--5--3--2--|
D ---10--5--3-----|
E ----------------|
Tap to rate this tab
# A B C D E F G H I J K L M N O P Q R S T U V W X Y Z