Song name
# A B C D E F G H I J K L M N O P Q R S T U V W X Y Z

Paramore - Brick By Boring Brick tab

                    Brick By Boring Brick - Paramore

This is a bit of a rough edit.
I'll probs be editing it a lot over the next week.
I know the Bridge looks a bit insane but, the chords ARE right.
Leave a comment if you have any corrections :D

Tuning: Eb [Half-step down]

Intro:
Lead:
eb|---------------------------------|
Bb|---------------------------------|
Gb|---------11-9-6~-6b7r6b7r6b7r6~--|
Db|------7~-------------------------|  x2
Ab|-7h9-----------------------------|
Eb|---------------------------------|

Rhythm
eb|-----------------------------|
Bb|-----------------------------|
Gb|-11-----11------------9------|
Db|-11-x8--11-----11-----11-----|  x4
Ab|-9---------x4--11-x4--xx16--|
Eb|--------9------10-----10-----|

Verse:
[Its all about the exposure...]
Lead:
eb|------------------|
Bb|------------------|
Gb|---------11-9-6~--|
Db|------7~----------|  x2
Ab|-7h9--------------|
Eb|------------------|

Rhythm:
eb|---------------------------------------------------------|
Bb|---------------------------------------------------------|
Gb|-11-11-11-11--11-11----------9--9--9--9--9-9-9--9--9--9--|
Db|-11-11-11-11--11-11--11-11--11-11-11-11-111111-11-11-11--|  x2
Ab|-9--9--9--9----------11-11--x-x--x--x--x-x-x--x--x--x---|
Eb|--------------9--9---10-10--10-10-10-10-101010-10-10-10--|

Pre-chorus:
Lead:
eb|------------------------|
Bb|------------------------|
Gb|------------------------|
Db|-9~-11~-6h7-6~---7~-9~--|
Ab|------------------------|
Eb|------------------------|

Rhythm:
eb|--------------------------------------------|
Bb|--------------------------------------------|
Gb|-10-----12-----8-----10-----12----14141414--|
Db|-10-x6--12-x3--8-x3--10-x6--12-x3-14141414--|
Ab|-8------10-----6-----8------10----12121212--|
Eb|--------------------------------------------|

Chorus:
eb|--------------------------------------|
Bb|--------------------------------------|
Gb|----------99999999----------11111111--|
Db|-77777777-99999999-44444444-22222222--|  x2
Ab|-77777777-xxxxxxxx-44444444-22222222--|
Eb|-55555555-99999999-22222222-00000000--|

Post-chorus:
Lead:
eb|----------------------|
Bb|----------------------|
Gb|-------------11-9-6~--|
Db|-11~------7~----------|
Ab|-----7h9--------------|
Eb|----------------------|

Rhythm:
eb|------------------------------------------------------|
Bb|------------------------------------------------------|
Gb|-1111111111111111-11111111-11111111-9-9-9-9-9-9-9-9---|
Db|-1111111111111111-11111111-11111111-1111111111111111--|
Ab|-9-9-9-9-9-9-9-9--9-9-9-9-----------x-x-x-x-x-x-x-x---|
Eb|---------------------------9-9-1010-1010101010101010--|

Verse:
[But, it was a trick...]
Lead:
eb|------------------|
Bb|------------------|
Gb|---------11-9-6~--|
Db|------7~----------|  x2
Ab|-7h9--------------|
Eb|------------------|

Rhythm:
eb|--------------------------------------------------------|
Bb|--------------------------------------------------------|
Gb|-11-11-11-11--11-11----------9--9--9--9--9-9-9-9--9--9---|
Db|-11-11-11-11--11-11--11-11--11-11-11-11-11111111-11-11--|  x2
Ab|-9--9--9--9----------11-11--x-x--x--x--x-x-x-x--x--x---|
Eb|--------------9--9---10-10--10-10-10-10-10101010-10-10--|

Pre-chorus:
Lead:
eb|------------------------|
Bb|------------------------|
Gb|------------------------|
Db|-9~-11~-6h7-6~---7~-9~--|
Ab|------------------------|
Eb|------------------------|

Rhythm:
eb|--------------------------------------------|
Bb|--------------------------------------------|
Gb|-10-----12-----8-----10-----12----14141414--|
Db|-10-x6--12-x3--8-x3--10-x6--12-x3-14141414--|
Ab|-8------10-----6-----8------10----12121212--|
Eb|--------------------------------------------|

Chorus:
eb|--------------------------------------|
Bb|--------------------------------------|
Gb|----------99999999----------11111111--|
Db|-77777777-99999999-44444444-22222222--|  x2
Ab|-77777777-xxxxxxxx-44444444-22222222--|
Eb|-55555555-99999999-22222222-00000000--|

Bridge:
[Strumming is a bit all over the place, listen to the song.]
eb|----------------------------------------------------|
Bb|-77--------------10101010-9999-5555-7777------------|
Gb|-xx-66-4444-7777--x-x-x-x-xxxx-xxxx-xxxx-6666-4444--|
Db|-44-xx-xxxx-xxxx--7-7-7-7-6666-2222-4444-xxxx-xxxx--|
Ab|----44-2222-5555-------------------------4444-2222--|
Eb|----------------------------------------------------|

eb|----------------------------------------------------------------|
Bb|-77------------------10101010-9999-55555555-5-5-7777------------|
Gb|-xx-66-4444-4-4-7777--x-x-x-x-xxxx-xxxxxxxx-x-x-xxxx-6666-4444--|
Db|-44-xx-xxxx-x-x-xxxx--7-7-7-7-6666-22222222-2-2-4444-xxxx-xxxx--|
Ab|----44-2222-2-2-5555---------------------------------4444-2222--|
Eb|----------------------------------------------------------------|

eb|--------------|
Bb|--------------|
Gb|----9~----1~--|
Db|-7~-9~-4~-2~--|  x2
Ab|-7~-x--4~-2~--|
Eb|-5~-9~-2~-0~--|

Chorus:
Rhythm:
eb|--------------------------------------|
Bb|--------------------------------------|
Gb|----------99999999----------11111111--|
Db|-77777777-99999999-44444444-22222222--|  x2
Ab|-77777777-xxxxxxxx-44444444-22222222--|
Eb|-55555555-99999999-22222222-00000000--|

Outro:
eb|---------------------------------------------|
Bb|---------------------------------------------|
Gb|-11111111--1111--------9-9-9-9-9-9-9-9-9-9---|
Db|-11111111--1111--1111--11111111111111111111--|  x4
Ab|-9-9-9-9---------1111--xx-x-x-x-x-x-x-x-x---|
Eb|-----------9-9---1010--10101010101010101010--|
   [                Palm Mute                ]
Tap to rate this tab
 
# A B C D E F G H I J K L M N O P Q R S T U V W X Y Z