Song name
# A B C D E F G H I J K L M N O P Q R S T U V W X Y Z

Paramore - Brick By Boring Brick tab

 Brick By Boring Brick Acoustic Tab by Paramore, www.Ultimate-Guitar.Com

Learn to play "Brick By Boring Brick Acoustic" with online video lessons 
Tuning - Half step down

F#m(244x00) or  (x911x00)
C#m(x46600)
D  (x57700)
A  (577x00)
E  (022x00) or  (x79x00)
E/G#(476x00) or (x1114x00)
those chords with #5 -do power chord of that chord

Intro- F#m C#m-D A 2x

Verse-
F#5           C#5-D5
She lives in a fairy tale
A5
Somewhere too far for us to find
F#5           C#5      D5
Forgotten the taste and smell
A
Of the world that she's left behind
F#m       C#m-D5   A            A
It's all about the exposure the lens I told her
F#m             C#m-D5
The angles were all wrong now
A
She's ripping wings off of butterflies

Refrain-
E                    E      F#m-D
With her feet on the ground
E                    E      F#m-E/G#
And her head in the clouds

Chorus-2x
A
Well go get your shovel
    C#m
And we'll dig a deep hole
   F#m               E
To bury the castle, bury the castle


Ba da ba da ba
Intro- F#5 C#5-D A
       F#m C#m-D A

Do verse
So one day he found her crying
Coiled up on the dirty ground
Her prince finally came to save her
And the rest you can figure out
But it was a trick
And the clock struck twelve
Well make sure to build your house brick by boring brick
Or the wolves gonna blow it down

Do refrain-chorus
With her feet on the ground
And her head in the clouds
Well go get your shovel
And we'll dig a deep hole
To bury the castle, bury the castle

Interlude-
F#m   D    A   E  2x

Bridge-
F#m
Well you built up a world of magic
D
Because your real life is tragic
A                                  E
Yeah you built up a world of magic

                A
If it's not real
                              C#m
You can't see it with your eyes
                              F#m
You can't feel it with your heart
    E
And I won't believe it
      A
Cause if it's true
                            C#m
You can see it with your eyes
             F#m
Even in the dark
             E
And that's where I want to be, yeah

Do chorus
Go get your shovel
We'll dig a deep hole
To bury the castle, bury the castle
Ba da ba da ba...


Intro-
josh-
|-0---------------0--------------0--------------0---------|
|-0---------------0--------------0--------------0---------|
|-11--(4x)--------11---(2x)------11--(2x)-------9---(8x)--|
|-11--------------11-------------11-------------11--------|
|-9---------------------------------------------0---------|
|-----------------9--------------10-----------------------|

Taylor's part

0:12
|-------------------------------------------------------------|
|-------------------------------------------------------------|
|----------11~--9~-----------------------11~--9~--------------|
|-------7~----------11~---11^r~-------7~----------11~---11^r~-|
|--7/9~--------------------------7/9~-------------------------|
|-------------------------------------------------------------|

Verse-
0:36
|-------------------------------------------------------------|
|-------------------------------------------------------------|
|----------11~--9~-----------------------11~--9~--------------|
|-------------------11~--------------------------11~----------|
|--7/9~--------------------------7/9~-------------------------|
|-------------------------------------------------------------|

Refrain-
0:46
|----(0)---(0)------(0)-----(0)----(0)---(0)---(0)---(0)--|
|----(0)---(0)------(0)-----(0)----(0)---(0)---(0)---(0)--|
|---------------------------------------------------------|
|--9~----9~-----11~------7~-----6~----(6)----7~----9~-----|
|---------------------------------------------------------|
|---------------------------------------------------------|

Chorus-2x
1:00
|--------------------------------------------------------|
|------10-9-------------------------10-9~----------------|
|-----------9~-------------------------------------------|
|-7/9-------------------------7/9------------------------|
|--------------------------------------------------------|
|--------------------------------------------------------|
1:06
|------0~-------------0~----------------------------------|
|------0~-------------0~----------------------------------|
|---------------------------------------------------------|
|-7/6------6/7--7\6--------11~-/-9~---9/11--11-s--9~------|
|---------------------------------------------------------|
|---------------------------------------------------------|


Then-Bass F# C#-D A
1:27
|---------------------------------------------------------|
|---------------------------------------------------------|
|-----------------11~-9~----------------------------------|
|--11^r~------7~----------11~------11^r~------------------|
|---------7/9---------------------------------------------|
|---------------------------------------------------------|

Do verse-chorus

Interlude-
|--------------------------------------------------------------|
|--------------------------------------------------------------|
|-xx-111111-666-4444444444-xx-777-141414-13131313131313131313--|
|-xx-----------------------xx----------------------------------|
|-xx-9-9-9--444-2222222222-xx-555-121212-11111111111111111111--|
|--------------------------------------------------------------|

|--------------------------------------------------|
|--------------------------------------------------|
|-xx-99999999-1111111111111111-66666666-44444444---|
|-xx-----------------------------------------------|
|-xx-77777777-9-9-9-9-9-9-9-9--44444444-22222222---|
|--------------------------------------------------|

Bridge-
|--------------------------------------------------------------|
|--------------------------------------------------------------|
|-xx-111111-666-4444-4-4-4-xx-777-141414-13131313131313131313--|
|-xx-----------------------xx----------------------------------|
|-xx-9-9-9--444-2222-2-2-2-xx-555-121212-11111111111111111111--|
|--------------------------------------------------------------|

|--------------------------------------------------|
|--------------------------------------------------|
|--xx999999999-9-9-9--66666666-44444444------------|
|--------------------------------------------------|
|--xx777777777-7-7-7--44444444-22222222------------|
|--------------------------------------------------|

3:10
|---------------------------------------------------------|
|-----------10-12--10-----9-10-------9~-------------------|
|----9--9--------------9----------------------------------|
|-11------------------------------------------------------|
|---------------------------------------------------------|
|---------------------------------------------------------|

Do chorus

3:46
|-0~------------------------------------------------------|
|-0~------------------------------------------------------|
|-0~------------------------------------------------------|
|---------------------------------------------------------|
|---------------------------------------------------------|
|---------------------------------------------------------|

4:06
|---------------------------------------------------------|
|---------------------------------------------------------|
|---------------------------------------------------------|
|-11r~---11r~----11r~---11r~-----11r~----11r~-----11r~----|till end
|---------------------------------------------------------|
|---------------------------------------------------------|

 
Tap to rate this tab
 
# A B C D E F G H I J K L M N O P Q R S T U V W X Y Z