Song name
# A B C D E F G H I J K L M N O P Q R S T U V W X Y Z

Paramore - Turn It Off tab

-------------------------------------------------------------------------------
			     Turn It Off - Paramore
-------------------------------------------------------------------------------
Tabbed by: PT-E
Email:

Tuning: Drop D
 
Intro
 Guitar 1
e|-------------------------------------|-------------------------------------|
B|-------------------------------------|-------------------------------------|
G|-17-16-17-16---12---7-7-9-10-9---2---|-17-16-17-16---12---7-7-9-10-9~------|
D|-x--x--x--x----x----x-x-x-x--x---x---|-x--x--x--x----x----x-x-x-x--x-------|
A|-15-14-15-14---10---5-5-7-8--7---0---|-15-14-15-14---10---5-5-7-8--7~------|
D|-------------------------------------|-------------------------------------|
 Guitar 2
e|-------------------------------------|-------------------------------------|
B|-------------------------------------|-------------------------------------|
G|-------------------------------------|-------------------------------------|
D|-7-7-7-7--9----10-10--10-10-10---3~--|--7-7-7-7--9----10-10--10-10-10-10---|
A|-7-7-7-7--10---10-10--10-10-10---3~--|--7-7-7-7--10---10-10--10-10-10-10---|
D|-7-7-7-7--9----10-10--10-10-10---3~--|--7-7-7-7--9----10-10--10-10-10-10---|

 Guitar 1  (it sounds like guitar 1 is using some kind of effect here.)
e|-------------------------------------|-------------------------------------|
B|-------------------------------------|-------------------------------------|
G|-17-16-17-16---12---7-7-9-10-9---2---|-17-16-17-16---12---7-7-9-10-9--7--5~|
D|-x--x--x--x----x----x-x-x-x--x---x---|-x--x--x--x----x----x-x-x-x--x--x--x~|
A|-15-14-15-14---10---5-5-7-8--7---0---|-15-14-15-14---10---5-5-7-8--7--5--3~|
D|-------------------------------------|-------------------------------------|
 
 Guitar 2
e|-------------------------------------|--------------------------------------|
B|-------------------------------------|--------------------------------------|
G|-------------------------------------|--------------------------------------|
D|-7-7-7-7--9----10-10--10-10-10---3~--|-7-7-7-7--9----10-10--10-10-10--3--7~-|
A|-7-7-7-7--10---10-10--10-10-10---3~--|-7-7-7-7--10---10-10--10-10-10--3--7~-|
D|-7-7-7-7--9----10-10--10-10-10---3~--|-7-7-7-7--9----10-10--10-10-10--3--7~-|


Verse
 Guitar 1
e|-------0--------------0--------------0--------------0----------------------|
B|-----1---1---1------1---1---1------1---1---1------1---1---1----------------|
G|---2-------2------2-------2------2-------2------2-------2------------------|
D|-------------------------------0--------------3----------------------------|
A|-0--------------3----------------------------------------------------------|
D|---------------------------------------------------------------------------|

 Guitar 1    2x
e|-----12------12------12------12------12------12------10------10----|--10----|
B|---13--13--13--13--13--13--13--13--13--13--13--13--13--13--13--13--|--13----|
G|-14------14------12------12------10------10------12------12--------|--12----|
D|-------------------------------------------------------------------|--------|
A|-------------------------------------------------------------------|--------|
D|-------------------------------------------------------------------|--------|
  Guitar 2
e|----------------------------------------------------------------------------|
B|-13~---------12~------------------------------------------------------------|
G|--------------------12~----------10~----------------------------------------|
D|----------------------------------------------10~-----3-3-3-3-3-3-3-3-3-----|
A|------------------------------------------------------3-3-3-3-3-3-3-3-3-----|
D|------------------------------------------------------3-3-3-3-3-3-3-3-3-----|


Chorus
 Guitar 1  2x
e|---------------------------------------------------------------------------|
B|---------------------------------------------------------------------------|
G|-7-5-5-7-5-5-5-7-4-4-4-4-4-4-4--4-4-4--5-5--12-12-12-12-12-12-12-12-12-----|
D|-5-5-5-5-5-5-5-5-5-5-5-5-5-5-5--x-x-x--x-x--x--x--x--x--x--x--x--x--x------|
A|--------------------------------2-2-2--3-3--10-10-10-10-10-10-10-10-10-----|
D|---------------------------------------------------------------------------|
 Guitar 2
e|---------------------------------------------------------------------------|
B|---------------------------------------------------------------------------|
G|-5-5-5-5-5-5-5-5-4-4-4-4-4-4-4-4-----------------x-x-----------------------|
D|-5-5-5-5-5-5-5-5-5-5-5-5-5-5-5-5-7-7-7-7-7-7-7-7-x-x--3-3-3-3--5-5-5-5-----|
A|-3-3-3-3-3-3-3-3-3-3-3-3-3-3-3-3-7-7-7-7-7-7-7-7-x-x--3-3-3-3--5-5-5-5-----|
D|---------------------------------7-7-7-7-7-7-7-7-x-x--3-3-3-3--5-5-5-5-----|


Intro

Verse

Chorus


Solo
 Guitar 1
e|-------------------------------------|-------------------------------------|
B|-------------------------------------|-------------------------------------|
G|-17-16-17-16---12---7-7-9-10-9---2---|-17-16-17-16---12---7-7-9-10-9~------|
D|-x--x--x--x----x----x-x-x-x--x---x---|-x--x--x--x----x----x-x-x-x--x-------|
A|-15-14-15-14---10---5-5-7-8--7---0---|-15-14-15-14---10---5-5-7-8--7~------|
D|-------------------------------------|-------------------------------------|
 Guitar 2
e|-------------------------------------|-------------------------------------|
B|-------------------------------------|-------------------------------------|
G|-------------------------------------|-------------------------------------|
D|-7-7-7-7--9----10-10--10-10-10---3~--|--7-7-7-7--9----10-10--10-10-10-10---|
A|-7-7-7-7--10---10-10--10-10-10---3~--|--7-7-7-7--10---10-10--10-10-10-10---|
D|-7-7-7-7--9----10-10--10-10-10---3~--|--7-7-7-7--9----10-10--10-10-10-10---|

 Guitar 1
e|----8---10--8------12----10--8-----------20--19------15--17--15------------|
B|-----------------------------------17------------17------------------------|
G|--9---9---------10----10--------14----14-------------------------14~-------|
D|---------------------------------------------------------------------------|
A|---------------------------------------------------------------------------|
D|---------------------------------------------------------------------------|
 Guitar 2
e|---------------------------------------------------------------------------|
B|---------------------------------------------------------------------------|
G|---------------------------------------------------------------------------|
D|-7-7-7-7-9--9--10-10-10-10-10-3-3-3-3---7-7-7-7-9--9--10-10-10-10-10-3-3-3-|
A|-7-7-7-7-10-10-10-10-10-10-10-3-3-3-3---7-7-7-7-10-10-10-10-10-10-10-3-3-3-|
D|-7-7-7-7-9--9--10-10-10-10-10-3-3-3-3---7-7-7-7-9--9--10-10-10-10-10-3-3-3-|



Bridge
e|-0------------0------------0-----------0-----------------------------------|
B|-1------------1------------1-----------1-----------------------------------|
G|-2------------0------------2-----------2-----------------------------------|
D|-2------------2------------0-----------3-------------5---------------------|
A|-0------------3------------3-----------3-----------------------------------|
D|---------------------------------------------------------------------------|

2x
 Guitar 1
e|---------------------------------------------------------------------------|
B|---------------------------------------------------------------------------|
G|-7-5-5-7-5-5-7-5-7-5-5-7-5-5-7-5-7-5-5-7-5-5-7-5-7-4-4-4-4-4-4-4-4-4-------|
D|-5-5-5-5-5-5-5-5-5-5-5-5-5-5-5-5-5-5-5-5-5-5-5-5-5-5-5-5-5-5-5-5-5-5-------|
A|---------------------------------------------------------------------------|
D|---------------------------------------------------------------------------|
 Guitar 2
e|---------------------------------------------------------------------------|
B|---------------------------------------------------------------------------|
G|---------------------------------------------------------------------------|
D|--7-7-7-7-7-7-7-10-10-10-10-10-10-10-3-3-3-3-3-3-3-3-5-5-5-5-5-5-5-5-------|
A|--7-7-7-7-7-7-7-10-10-10-10-10-10-10-3-3-3-3-3-3-3-3-5-5-5-5-5-5-5-5-------|
D|--7-7-7-7-7-7-7-10-10-10-10-10-10-10-3-3-3-3-3-3-3-3-5-5-5-5-5-5-5-5-------|


2x
Chorus
 Guitar 1  
e|---------------------------------------------------------------------------|
B|---------------------------------------------------------------------------|
G|-7-5-5-7-5-5-5-7-4-4-4-4-4-4-4--4-4-4--5-5--12-12-12-12-12-12-12-12-12-----|
D|-5-5-5-5-5-5-5-5-5-5-5-5-5-5-5--x-x-x--x-x--x--x--x--x--x--x--x--x--x------|
A|--------------------------------2-2-2--3-3--10-10-10-10-10-10-10-10-10-----|
D|---------------------------------------------------------------------------|
 Guitar 2
e|---------------------------------------------------------------------------|
B|---------------------------------------------------------------------------|
G|-5-5-5-5-5-5-5-5-4-4-4-4-4-4-4-4-----------------x-x-----------------------|
D|-5-5-5-5-5-5-5-5-5-5-5-5-5-5-5-5-7-7-7-7-7-7-7-7-x-x--3-3-3-3--5-5-5-5-----|
A|-3-3-3-3-3-3-3-3-3-3-3-3-3-3-3-3-7-7-7-7-7-7-7-7-x-x--3-3-3-3--5-5-5-5-----|
D|---------------------------------7-7-7-7-7-7-7-7-x-x--3-3-3-3--5-5-5-5-----|

2x
 Guitar 1
e|---------------------------------------------------------------------------|
B|---------------------------------------------------------------------------|
G|-9-7-7-12-7-7-7-7--9-7-7-12-7-7-7-7--4-4-5-5-7-7-7-7--2-2-4-4-5-5-5-5-5----|
D|-x-x-x-x--x-x-x-x--x-x-x-x--x-x-x-x--x-x-x-x-x-x-x-x--x-x-x-x-x-x-x-x-x----|
A|-7-5-5-10-5-5-5-5--7-5-5-10-5-5-5-5--2-2-3-3-5-5-5-5--0-0-2-2-3-3-3-3-3----|
D|---------------------------------------------------------------------------|

Guitar 2
e|---------------------------------------------------------------------------|
B|---------------------------------------------------------------------------|
G|-5-5-5-5-5-5-5-5-4-4-4-4-4-4-4-4-----------------x-x-----------------------|
D|-5-5-5-5-5-5-5-5-5-5-5-5-5-5-5-5-7-7-7-7-7-7-7-7-x-x--3-3-3-3--5-5-5-5-----|
A|-3-3-3-3-3-3-3-3-3-3-3-3-3-3-3-3-7-7-7-7-7-7-7-7-x-x--3-3-3-3--5-5-5-5-----|
D|---------------------------------7-7-7-7-7-7-7-7-x-x--3-3-3-3--5-5-5-5-----|

 
Outro
 Guitar 1
e|-------------------------------------------------------------------------------------|
B|-------------------------------------------------------------------------------------|
G|-10-9--9--10-9--9--9--9--10-9--9--10-9--9--9--9--10-9--9--10-9--9--9--9--7-7-7-7-7-7-|
D|-12-10-10-12-10-10-10-10-12-10-10-12-10-10-10-10-12-10-10-12-10-10-10-10-9-9-9-9-9-9-|
A|-------------------------------------------------------------------------------------|
D|-------------------------------------------------------------------------------------|

3x 
 Guitar 1
e|-------------------------------------------------------------------------------------|
B|-------------------------------------------------------------------------------------|
G|-10-9--9--10-9--9--9--9--10-9--9--10-9--9--9--9--10-9--9--10-9--9--9--9--7-7-7-7-7-7-|
D|-12-10-10-12-10-10-10-10-12-10-10-12-10-10-10-10-12-10-10-12-10-10-10-10-9-9-9-9-9-9-|
A|-------------------------------------------------------------------------------------|
D|-------------------------------------------------------------------------------------|
 Guitar 2
e|12-------12-------13----12-------12-15----13----12-------12-------13----10-------10-------10---|
B|---13-13----13-13----13----13-13-------13----13----13-13----13-13----13----12-12----12-12----10|
G|-----------------------------------------------------------------------------------------------|
D|-----------------------------------------------------------------------------------------------|
A|-----------------------------------------------------------------------------------------------|
D|-----------------------------------------------------------------------------------------------|

 Guitar 1
e|-------------------|
B|-------------------|
G|-9~----------------|
D|-10~---------------|
A|-------------------|
D|-------------------|
 Guitar 2
e|-12~---------------|
B|-13~---------------|
G|-------------------|
D|-------------------|
A|-------------------|
D|-------------------|


| /  slide up
| \  slide down
| h  hammer-on
| p  pull-off
| +  harmonic
| x  Mute note
===============================================================================
Tap to rate this tab
# A B C D E F G H I J K L M N O P Q R S T U V W X Y Z