Song name
# A B C D E F G H I J K L M N O P Q R S T U V W X Y Z

Paramore - The Only Exception tab

 -- Paramore  The Only Exception --

standard tuning EADGBE

tabbed by x-tasha-x

 - CAPO 3rd -

Intro:
guitar 1:
       G      Dm   C
E||-33333333-1111-0000--|
B||-33333333-3333-1111--|
G||-00000000-2222-0000--|x2
D||-00000000-0000-2222--|
A||-22222222------3333--|
E||-33333333------------|

guitar 2:
E||---------------------|  
B||-15-------16---18----|
G||-15-------17---19----|x2
D||---------------------|  
A||---------------------| 
E||---------------------|   


verse:
guitar 1:
        G     Dm   C
E||-33333333-1111-0000--|
B||-33333333-3333-1111--|x4
G||-00000000-2222-0000--|
D||-00000000-0000-2222--|
A||-22222222------3333--|
E||-33333333------------|

guitar 2:
        G     Dm   C
E||-33333333-1111-0000--|  |------------------|  
B||-33333333-3333-1111--|x2|-15--15---16------|
G||-00000000-2222-0000--|  |-15--15---17------|x2
D||-00000000-0000-2222--|  |------------------|  
A||-22222222------3333--|  |------------------| 
E||-33333333------------|  |------------------|  


chorus:
guitar 1:
        G     Dm   C
E||-33333333-1111-0000--|
B||-33333333-3333-1111--|x2
G||-00000000-2222-0000--|
D||-00000000-0000-2222--|
A||-22222222------3333--|
E||-33333333------------|

guitar 2:
E||-------------------------------------------------------------------------|  
B||-11-11-11-11-11-11-11-11-11-11-11-11-13-13-13-13-13-13-15-15-15-15-15-15-|x2
G||-------------------------------------------------------------------------| 
D||-------------------------------------------------------------------------|  
A||-------------------------------------------------------------------------| 
E||-------------------------------------------------------------------------|  


Before verse 2:
guitar 1:
         G    
E||-33333333333333-|
B||-33333333333333-|
G||-00000000000000-|
D||-00000000000000-|
A||-22222222222222-|
E||-33333333333333-|

guitar 2:
E||----------------|  
B||-15-------------|
G||-15-------------|
D||----------------|  
A||----------------| 
E||----------------|  


Verse 2:
guitar 1:
        G     Dm   C
E||-33333333-1111-0000--|
B||-33333333-3333-1111--|x4
G||-00000000-2222-0000--|
D||-00000000-0000-2222--|
A||-22222222------3333--|
E||-33333333------------|

guitar 2:
E||---------------------|  
B||-15--15---16---------|
G||-15--15---17---------|x4
D||---------------------|  
A||---------------------| 
E||---------------------|  


CHORUS

Bridge:
guitar 1:
       Am     G    D           Am     G    D      C
E||-00000000-3333-2222-|  |-00000000-3333-2222-00000000-|
B||-11111111-3333-3333-|x3|-11111111-3333-3333-11111111-|
G||-22222222-0000-2222-|  |-22222222-0000-2222-00000000-|
D||-22222222-0000-0000-|  |-22222222-0000-0000-22222222-|
A||-00000000-2222------|  |-00000000-2222------33333333-|
E||----------3333------|  |----------3333---------------|

guitar 2:
E||-15-----------------15----------------|  
B||----18-------18--------18-------------|x2
G||--------14-15--------------14--15-----|  
D||----------------------------------15--|  
A||--------------------------------------| 
E||--------------------------------------| 

then:
E||---------------------------------------------------------------|
B||---------------------------------------------------------------|
G||----------------------------7-7-7------------------------------|
D||-13-13-13-12-12-12-10-10-10-------8-8-8-10-10-10-7-7-7-7-7-7---|
A||---------------------------------------------------------------|
E||---------------------------------------------------------------|

E||------------------------------------------------------------------|
B||------------------------------------------------------------------|
G||-------------------10-10-10-10-10-10------------------------------|
D||-13-13-13-12-12-12--------------------8-8-8-10-10-10-7-7-7-7-7-7--|
A||------------------------------------------------------------------|
E||------------------------------------------------------------------|



Last Chorus:
guitar 1:
       G      Dm   C
E||-33333333-1111-0000--|
B||-33333333-3333-1111--|x2
G||-00000000-2222-0000--|
D||-00000000-0000-2222--|
A||-22222222------3333--|
E||-33333333------------|

guitar 2:
E||---------------------|  
B||-15-------16---18----|
G||-15-------17---19----|x2
D||---------------------|  
A||---------------------| 
E||---------------------|  


then:
guitar 1:
       G      Dm   C
E||-33333333-1111-0000--|
B||-33333333-3333-1111--|x2
G||-00000000-2222-0000--|
D||-00000000-0000-2222--|
A||-22222222------3333--|
E||-33333333------------|


guitar 2:
E||-------------------------------------------------------------------------|  
B||-11-11-11-11-11-11-11-11-11-11-11-11-13-13-13-13-13-13-15-15-15-15-15-15-|
G||-------------------------------------------------------------------------|  
D||-------------------------------------------------------------------------|  
A||-------------------------------------------------------------------------| 
E||-------------------------------------------------------------------------|  

then:
E||-------------------------------------13-13-13-11-11-11-------------------|  
B||-11-11-11-11-11-11-11-11-11-11-11-11-------------------15-15-15-15-15-15-|
G||-------------------------------------------------------------------------|  
D||-------------------------------------------------------------------------|  
A||-------------------------------------------------------------------------| 
E||-------------------------------------------------------------------------|  


end with:
guitar 1 & 2:
     F    C      G        F    C   G  
E||-1111-0000-33333333-||-1----0----3--------|
B||-1111-1111-33333333-||-1----1----3--------|
G||-2222-0000-00000000-||-2----0----0--------|
D||-3333-2222-00000000-||-3----2----0--------|
A||-3333-3333-22222222-||-3----3----2--------|
E||-1111------33333333-||-1---------3--------|
Tap to rate this tab
# A B C D E F G H I J K L M N O P Q R S T U V W X Y Z