Song name
# A B C D E F G H I J K L M N O P Q R S T U V W X Y Z

Paramore - Ignorance Acoustic tab

Song: Ignorance
Band: Paramore

This is a tab of Ignorance that Paramore played at Radio One's Live Lounge on 4th 
2009. Any comments and corrections welcome.

Intro: X2

eb|----------------------------------------------------------|
Bb|----------------------------------------------------------|
Gb|--77-7-7-7---7-7---7--7--7----77-7-7-7---7-7---7--7--7----|
Db|--99-9-9-9---7-7---7--7--7----99-9-9-9---7-7---7--7--7----|
Ab|--99-9-9-9---9-9---9--9--9----99-9-9-9---9-9---9--9--9----|
Db|--77-7-7-7---1010--10-10-10---77-7-7-7---1010--10-10-10---|


eb|--33-3-3-3--------------33-3-3-3-----------------|
Bb|--33-3-3-3---33-3-3-3---33-3-3-3-----------------|
Gb|--44-4-4-4---xx-x-x-x---44-4-4-4-----------------|
Db|--55-5-5-5---44-4-4-4---55-5-5-5-----------------|
Ab|--55-5-5-5---55-5-5-5---55-5-5-5---5-5-4-4-------|
Eb|--33-3-3-3--------------33-3-3-3-----------5-2---|


Verse


eb|-------------------------------------------------------------------------|
Bb|-------------------------------------------------------------------------|
Gb|-------------------------------------------------------------------------|
Db|--------9-------9-------9-------9-------9-------9-------9-------9--------|
Ab|------9-------9-------9-------9-------9-------9-------9-------9----------|
Eb|--7-7-----7-7-----7-7-----7-7-----7-7-----7-7-----7-7-----7-7------------|

eb|-------------------------------------------------------------------------|
Bb|-------------------------------------------------------------------------|
Gb|------------------------------------------------------4-------4-------4--|
Db|----------12---------12---------12---------12-------5-------5-------5----|
Ab|--------9----------9----------9----------9-------------------------------|
Eb|--10-10------10-10------10-10------10-10--------3-3-----3-3-----3-3------|

eb|-----------0-(x16)--3-(x16)----------------------3-----------------------|
Bb|-----------0-(x16)--3-(x16)----------------------3-----------------------|
Gb|--7-(x24)--0-(x16)--4-(x16)----------------------4-----------------------|
Db|--9-(x24)--2-(x16)--5-(x16)------2-2-x-x-x-2-2-2-5-----------------------|
Ab|--9-(x24)--2-(x16)--5-(x16)------2-2-x-x-x-2-2-2-5-----------------------|
Eb|--7-(x24)--0-(x16)--3-(x16)------0-0-x-x-x-0-0-0-3-----------------------|


Chorus (x2)

eb|----------------------------------------------------------|
Bb|----------------------------------------------------------|
Gb|--77-7-7-7---7-7---7--7--7----77-7-7-7---7-7---7--7--7----|
Db|--99-9-9-9---7-7---7--7--7----99-9-9-9---7-7---7--7--7----|
Ab|--99-9-9-9---9-9---9--9--9----99-9-9-9---9-9---9--9--9----|
Db|--77-7-7-7---1010--10-10-10---77-7-7-7---1010--10-10-10---|


eb|--33-3-3-3--------------33-3-3-3-----------------|
Bb|--33-3-3-3---33-3-3-3---33-3-3-3-----------------|
Gb|--44-4-4-4---xx-x-x-x---44-4-4-4-----------------|
Db|--55-5-5-5---44-4-4-4---55-5-5-5-----------------|
Ab|--55-5-5-5---55-5-5-5---55-5-5-5---5-5-4-4-------|
Eb|--33-3-3-3--------------33-3-3-3-----------5-2---|

Interlude


eb|---------------------------------------------------------------------|
Bb|---------------------------------------------------------------------|
Gb|-----------------------------------------------2-2p0-----------------|
Db|------/9-9----------/9-9----------/9-9---------------4---------------|
Ab|--2-2-----9-9---2-2-------9-9----------9-9---------------------------|
Eb|------------------------------0-0----------3-3-----------------------|


Verse


eb|-------------------------------------------------------------------------|
Bb|-------------------------------------------------------------------------|
Gb|-------------------------------------------------------------------------|
Db|--------9-------9-------9-------9-------9-------9-------9-------9--------|
Ab|------9-------9-------9-------9-------9-------9-------9-------9----------|
Eb|--7-7-----7-7-----7-7-----7-7-----7-7-----7-7-----7-7-----7-7------------|

eb|-------------------------------------------------------------------------|
Bb|-------------------------------------------------------------------------|
Gb|------------------------------------------------------4-------4-------4--|
Db|----------12---------12---------12---------12-------5-------5-------5----|
Ab|--------9----------9----------9----------9-------------------------------|
Eb|--10-10------10-10------10-10------10-10--------3-3-----3-3-----3-3------|

eb|-----------0-(x16)--3-(x16)----------------------3-----------------------|
Bb|-----------0-(x16)--3-(x16)----------------------3-----------------------|
Gb|--7-(x24)--0-(x16)--4-(x16)----------------------4-----------------------|
Db|--9-(x24)--2-(x16)--5-(x16)------2-2-x-x-x-2-2-2-5-----------------------|
Ab|--9-(x24)--2-(x16)--5-(x16)------2-2-x-x-x-2-2-2-5-----------------------|
Eb|--7-(x24)--0-(x16)--3-(x16)------0-0-x-x-x-0-0-0-3-----------------------|

Chorus (x2)

eb|----------------------------------------------------------|
Bb|----------------------------------------------------------|
Gb|--77-7-7-7---7-7---7--7--7----77-7-7-7---7-7---7--7--7----|
Db|--99-9-9-9---7-7---7--7--7----99-9-9-9---7-7---7--7--7----|
Ab|--99-9-9-9---9-9---9--9--9----99-9-9-9---9-9---9--9--9----|
Db|--77-7-7-7---1010--10-10-10---77-7-7-7---1010--10-10-10---|


eb|--33-3-3-3--------------33-3-3-3-----------------|
Bb|--33-3-3-3---33-3-3-3---33-3-3-3-----------------|
Gb|--44-4-4-4---xx-x-x-x---44-4-4-4-----------------|
Db|--55-5-5-5---44-4-4-4---55-5-5-5-----------------|
Ab|--55-5-5-5---55-5-5-5---55-5-5-5---5-5-4-4-------|
Eb|--33-3-3-3--------------33-3-3-3-----------5-2---|

SOLO TO BE ADDED

Chorus (x2)

eb|----------------------------------------------------------|
Bb|----------------------------------------------------------|
Gb|--77-7-7-7---7-7---7--7--7----77-7-7-7---7-7---7--7--7----|
Db|--99-9-9-9---7-7---7--7--7----99-9-9-9---7-7---7--7--7----|
Ab|--99-9-9-9---9-9---9--9--9----99-9-9-9---9-9---9--9--9----|
Db|--77-7-7-7---1010--10-10-10---77-7-7-7---1010--10-10-10---|


eb|--33-3-3-3--------------33-3-3-3-----------------|
Bb|--33-3-3-3---33-3-3-3---33-3-3-3-----------------|
Gb|--44-4-4-4---xx-x-x-x---44-4-4-4-----------------|
Db|--55-5-5-5---44-4-4-4---55-5-5-5-----------------|
Ab|--55-5-5-5---55-5-5-5---55-5-5-5---5-5-4-4-------|
Eb|--33-3-3-3--------------33-3-3-3-----------5-2---|
Tap to rate this tab
# A B C D E F G H I J K L M N O P Q R S T U V W X Y Z