Song name
# A B C D E F G H I J K L M N O P Q R S T U V W X Y Z

Paramore - Misguided Ghosts tab

Misguided Ghosts

Tabbed by Blassassin

NOTE! This tab is well... Quite hard to match up to the song, not because
it's written badly, it's because it's hard to hear the rhythm guitar

I had to shut off the right speaker and the left speaker to isolate each guitar
It was tough

I worked pretty hard on this tab *Hint hint* Make the effort to try

=INTRO= (0:02)

Guitar 1 (Lead, right speaker)

e|[----0-------3--]-----------------------------------|
B|[0h1---1-1p0---0] x 2------0---0h1-0-----0---0h1-3--|
G|-------------------------0---0-------0-------------0| x 2
D|---------------------------------------2---2--------|
A|----------------------------------------------------|
E|----------------------------------------------------|

Guitar 2 (Rhythm, left speaker)

e|-------------------------------|-----------------------------------|
B|-------------------------------|-----------------------------------|
G|----2-------2-------2-------2--|----0-------0-------0-------0------|
D|0h2---2-0h2---2-0h2---2-0h2---2|0h2---2-0h2---2-0h2---2-0h2---2----| x 2
A|-------------------------------|-----------------------------------|
E|-------------------------------|-----------------------------------|

=VERSE= (0:20)

Guitar 1 (Lead, right speaker)

e|[----0-------3--]-----------------------------------|
B|[0h1---1-1p0---0] x 2------0---0h1-0-----0---0h1-3--|
G|-------------------------0---0-------0-------------0| x 2
D|---------------------------------------2---2--------|
A|----------------------------------------------------|
E|----------------------------------------------------|

Guitar 2 (Rhythm, left speaker)

e|-------------------------------|-----------------------------------|
B|-------------------------------|-----------------------------------|
G|----2-------2-------2-------2--|----0-------0-------0-------0------|
D|0h2---2-0h2---2-0h2---2-0h2---2|0h2---2-0h2---2-0h2---2-0h2---2----| x 2
A|-------------------------------|-----------------------------------|
E|-------------------------------|-----------------------------------|


=BRIDGE= (0:38)

Guitar 1 (Lead, right speaker)

e|12----12-12----12-10----10-10----10-8---8-8---8-10---10-7---7-|
B|---13-------13-------12-------12------8-----8------8------8---|
G|--------------------------------------------------------------|
D|--------------------------------------------------------------|
A|--------------------------------------------------------------|
E|--------------------------------------------------------------|

e|12----12-12----12-10----10-10----10-8---8-8---8-10---10-7~----|
B|---13-------13-------12-------12------8-----8------8----------|
G|--------------------------------------------------------------|
D|--------------------------------------------------------------|
A|--------------------------------------------------------------|
E|--------------------------------------------------------------|

Guitar 2 (Rhythm, left speaker)

e|-----------------------------------------------------------3------3------|
B|----1---------1---------------1~------------1------1---------1------1----|
G|------0---------0-------0--------0------2-2---2-2~---2-0-0-----0~--------|
D|--------2---------2-------2--------2-------------------------------------|
A|0-0-------0-0-------3-3-----3--------3-----------------------------------|
E|-------------------------------------------------------------------------|

e|----0---------0---------0---------0------------------------3-------------|
B|------1---------1---------3---------3-------1------1---------1-0~--------|
G|--------0---------0---------0---------0-2-2---2-2~---2-0-0---------------|
D|-------------------------------------------------------------------------|
A|0-0-------0-0-------3-3-------3-3----------------------------------------|
E|-------------------------------------------------------------------------|

=CHORUS= (0:57)

Guitar 1 (Right speaker)

e|-----------------------------------------|
B|-5-3-7-8~~--5-3-0-1~--5-3-7-9~~--5-3-0---|
G|-5-4-7-9~~--5-4-0-2~--5-4-7-9~~--5-4-0---|
D|-7-5-9-10~--7-5-2-3~--7-5-9-10~--7-5-2---|
A|-7-5-9-10~--7-5-2-3~--7-5-9-10~--7-5-2---|
E|-5-3-7-8~~--5-3-0-1~--5-3-7-8~~--5-3-0---|

Guitar 2 (Left Speaker)

e|-----------0---------0---------0-----------------------------------------------|
B|-------1-1---1---1-1---1---1-1---1---------------------------------------------|
G|-5-4-7---------0---------0---------0--5-4-0-----2--------2--------2------------|
D|-7-5-9--------------------------------7-5-2-3-3---3--3-3---3--3-3---3----------|
A|-7-5-9--------------------------------7-5-2------------------------------------|
E|-5-3-7--------------------------------5-3-0------------------------------------|

e|-----------0---------0---------0------------|
B|-------1-1---1---1-1---1---1-1---1----------|
G|-5-4-7---------0---------0---------0--5-4-0-|
D|-7-5-9--------------------------------7-5-2-|
A|-7-5-9--------------------------------7-5-2-|
E|-5-3-7--------------------------------5-3-0-|

=VERSE= (1:14)

Guitar 1 (Lead, right speaker)

e|[----0-------3--]-----------------------------------|
B|[0h1---1-1p0---0] x 2------0---0h1-0-----0---0h1-3--|
G|-------------------------0---0-------0-------------0| x 3
D|---------------------------------------2---2--------|
A|----------------------------------------------------|
E|----------------------------------------------------|

Guitar 2 (Rhythm, left speaker)

e|-------------------------------|-----------------------------------|
B|-------------------------------|-----------------------------------|
G|----2-------2-------2-------2--|----0-------0-------0-------0------|
D|0h2---2-0h2---2-0h2---2-0h2---2|0h2---2-0h2---2-0h2---2-0h2---2----| x 3
A|-------------------------------|-----------------------------------|
E|-------------------------------|-----------------------------------|

=BRIDGE= (1:41)

Guitar 1 (Lead, right speaker)

e|12----12-12----12-10----10-10----10-8---8-8---8-10---10-7---7-|
B|---13-------13-------12-------12------8-----8------8------8---|
G|--------------------------------------------------------------|
D|--------------------------------------------------------------|
A|--------------------------------------------------------------|
E|--------------------------------------------------------------|

e|12----12-12----12-10----10-10----10-8---8-8---8-10---10-7~----|
B|---13-------13-------12-------12------8-----8------8----------|
G|--------------------------------------------------------------|
D|--------------------------------------------------------------|
A|--------------------------------------------------------------|
E|--------------------------------------------------------------|

Guitar 2 (Rhythm, left speaker)

e|-----------------------------------------------------------3------3------|
B|----1---------1---------------1~------------1------1---------1------1----|
G|------0---------0-------0--------0------2-2---2-2~---2-0-0-----0~--------|
D|--------2---------2-------2--------2-------------------------------------|
A|0-0-------0-0-------3-3-----3--------3-----------------------------------|
E|-------------------------------------------------------------------------|

e|----0---------0---------0---------0------------------------3-------------|
B|------1---------1---------3---------3-------1------1---------1-0~--------|
G|--------0---------0---------0---------0-2-2---2-2~---2-0-0---------------|
D|-------------------------------------------------------------------------|
A|0-0-------0-0-------3-3-------3-3----------------------------------------|
E|-------------------------------------------------------------------------|

=CHORUS= (1:58)

Guitar 1 (Right speaker)

e|-------------------------------------------|
B|-5-3-7-8~~--5-3-0-1~--5-3-7-9~~--5-3-0-1~--|
G|-5-4-7-9~~--5-4-0-2~--5-4-7-9~~--5-4-0-2~--|
D|-7-5-9-10~--7-5-2-3~--7-5-9-10~--7-5-2-3~--|
A|-7-5-9-10~--7-5-2-3~--7-5-9-10~--7-5-2-3~--|
E|-5-3-7-8~~--5-3-0-1~--5-3-7-8~~--5-3-0-1~--|

e|----------------------------------------------|
B|-5-3-8-8~~--5-3-0-1~--5-3-8-9~~--5-3-7--------|
G|-5-4-8-9~~--5-4-0-2~--5-4-8-9~~--5-4-7-9--10--|
D|-7-5-9-10~--7-5-2-3~--7-5-9-10~--7-5-9-10-12--|
A|-7-5-9-10~--7-5-2-3~--7-5-9-10~--7-5-9-10-12--|
E|-5-3-7-8~~--5-3-0-1~--5-3-7-8~~--5-3-7-8--10--|

Guitar 2 (Left Speaker)

e|-----------0---------0---------0-----------------------------------------------|
B|-------1-1---1---1-1---1---1-1---1---------------------------------------------|
G|-5-4-7---------0---------0---------0--5-4-0-----2--------2--------2------------|
D|-7-5-9--------------------------------7-5-2-3-3---3--3-3---3--3-3---3----------|
A|-7-5-9--------------------------------7-5-2------------------------------------|
E|-5-3-7--------------------------------5-3-0------------------------------------|

e|-----------0---------0---------0------------|
B|-------1-1---1---1-1---1---1-1---1----------|
G|-5-4-7---------0---------0---------0--5-4-0-|
D|-7-5-9--------------------------------7-5-2-|
A|-7-5-9--------------------------------7-5-2-|
E|-5-3-7--------------------------------5-3-0-|

e|-----------0---------0---------0-----------------------------------------------|
B|-------1-1---1---1-1---1---1-1---1---------------------------------------------|
G|-5-4-7---------0---------0---------0--5-4-0-----2--------2--------2------------|
D|-7-5-9--------------------------------7-5-2-3-3---3--3-3---3--3-3---3----------|
A|-7-5-9--------------------------------7-5-2------------------------------------|
E|-5-3-7--------------------------------5-3-0------------------------------------|

e|-----------0---------0---------0-----------------|
B|-------1-1---1---1h3---3p1--1-1--1---------------|
G|-5-4-7---------0-------------------0--5-4-7-9--10|
D|-7-5-9--------------------------------7-5-9-10-12|
A|-7-5-9--------------------------------7-5-9-10-12|
E|-5-3-7--------------------------------5-3-7-8--10|

=OUTRO=

Guitar 1 (Lead, right speaker)

e|[----0-------3--]-----------------------------------|
B|[0h1---1-1p0---0] x 2------0---0h1-0-----0---0h1-3--|
G|-------------------------0---0-------0-------------0| 
D|---------------------------------------2---2--------|
A|----------------------------------------------------|
E|----------------------------------------------------|

e|[----0-------3--]--------------------------------------1~|
B|[0h1---1-1p0---0] x 2------0---0h1-0-----0---0h1-3-----0~|
G|-------------------------0---0-------0-------------0-----| 
D|---------------------------------------2---2-------------|
A|---------------------------------------------------------|
E|---------------------------------------------------------|

Guitar 2 (Rhythm, left speaker)

e|-------------------------------|-----------------------------------|
B|-------------------------------|-----------------------------------|
G|----2-------2-------2-------2--|----0-------0-------0-------0------|
D|0h2---2-0h2---2-0h2---2-0h2---2|0h2---2-0h2---2-0h2---2-0h2---2----| 
A|-------------------------------|-----------------------------------|
E|-------------------------------|-----------------------------------|

Guitar 2 (Rhythm, left speaker)

e|-------------------------------|------------------------------------|
B|-------------------------------|------------------------------------|
G|----2-------2-------2-------2--|----0-------0-------0-------0-----2~|
D|0h2---2-0h2---2-0h2---2-0h2---2|0h2---2-0h2---2-0h2---2-0h2---2-----|
A|-------------------------------|------------------------------------|
E|-------------------------------|------------------------------------|

If you made it this far, well done =D

RATINGS AND COMMENTS ARE WELCOMED! =D
Tap to rate this tab
# A B C D E F G H I J K L M N O P Q R S T U V W X Y Z