Song name
# A B C D E F G H I J K L M N O P Q R S T U V W X Y Z

Paramore - Looking Up tab

Tuning- Standard

Intro-
1.
GtrI
(--------------3x--------------)
|------------------------------|-----------------------------------|
|------------------------------|-----------------------------------|
|--9/11-1111-11--9-9--9-9--9-9-|-6-x-8-x-9--x-1111-1111111111------|
|--9/9--9-9--9---9-9--9-9--9-9-|-7-x-9-x-11-x-1313-1313131313------|
|--9/11-1111-11--x-x--x-x--x-x-|-7-x-9-x-11-x-1313-1313131313------|
|----------------9-9--9-9--9-9-|-5-x-7-x-9--x-1111-1111111111------|


2.

GtrI
(--------------3x--------------)
|------------------------------|-----------------------------------|
|------------------------------|-----------------------------------|
|--9/11-1111-11--9-9--9-9--9-9-|-6-x-8-x-9--x-1111-1111111111------|
|--9/9--9-9--9---9-9--9-9--9-9-|-7-x-9-x-11-x-1313-1313131313------|
|--9/11-1111-11--x-x--x-x--x-x-|-7-x-9-x-11-x-1313-1313131313------|
|----------------9-9--9-9--9-9-|-5-x-7-x-9--x-1111-1111111111------|

GtrII
|-------------------------------|-------------------------------|------------------------------|
|-------------------------------|-------------------------------|------------------------------|
|-13/12-1212-12-1313-1313-1313--|-13/20-2020-20--1313-1313-1313-|-9-x-11-x13-x-1616-1616161616-|
|-------------------------------|-------------------------------|------------------------------|
|-11/14-1414-14-1111-1111-1111--|-11/18-1818-18--1111-1111-1111-|-7-x-9--x11-x-1414-1414141414-|
|-------------------------------|-------------------------------|------------------------------|



Verse-
GtrI(palm mute)
|-------------------------------------------------------------|
|-------------------------------------------------------------|
|-------------------------------------------------------------|
|---------------6666-6-4444-4----------------6666-6-4444-4----|
|-2222-2-2222-2-4444-4-2222-2--2222-2-2222-2-4444-4-2222-2----|
|-0000-0-0000-0----------------0000-0-0000-0------------------|

GtrI(palm mute)
|-------------------------------------------------------------|
|-------------------------------------------------------------|
|-------------------------------------------------------------|
|---------------6666-6-4444-4----------------6666-6-4444-4----|
|-2222-2-2222-2-4444-4-2222-2--2222-2-2222-2-4444-4-2222-2----|
|-0000-0-0000-0----------------0000-0-0000-0------------------|

GtrII
|-12----14----12----14----12----12----11----11---------------|
|----12----12----12----12----12----12----12----12------------|
|------------------------------------------------------------|
|------------------------------------------------------------|
|------------------------------------------------------------|
|------------------------------------------------------------|

Refrain
GtrI
|------------------------------|
|------------------------------|
|-----444----------------------|
|-22--444--22------------------|
|-22--222--22------------------|
|-00-------00------------------|


|------------------------------|
|-----555----------------------|
|-----444----------------------|
|-22-------22------------------|
|-22-------22------------------|
|-00-------00------------------|


Chorus-
GtrI
|--------------------------------------------------------------------------|
|--------------------------------------------------------------------------|
|-------------------66666666-44444444--------------------44444444-44444444-|
|-77777777-22222222-66666666-44444444--77777777-22222222-44444444-44444444-|
|-77777777-22222222-44444444-22222222--77777777-22222222-22222222-22222222-|
|-55555555-00000000--------------------55555555-00000000-------------------|
GtrII
|---------------------------------------------------------------------|
|---------------------------------------------------------------------|
|--9-9-9-9-9-9-9-9-1313131313131313-9-9-9-9-9-9-9-9-8-8-8-8-8-8-8-8---|
|---------------------------------------------------------------------|
|--7-7-7-7-7-7-7-7-1111111111111111-7-7-7-7-7-7-7-7-6-6-6-6-6-6-6-6---|
|---------------------------------------------------------------------|

|---------------------------------------------------------------------|
|---------------------------------------------------------------------|
|--9-9-9-9-9-9-9-9-1313131313131313-1111111111111111-1111111111111111-|
|---------------------------------------------------------------------|
|--7-7-7-7-7-7-7-7-1111111111111111-9-9-9-9-9-9-9-9--9-9-9-9-9-9-9-9--|
|---------------------------------------------------------------------|

GtrI
|------------------------------------------------------------------------------|
|------------------------------------------------------------------------------|
|---------------------6666-666-4444-444----------------------6666-666-4444-444-|
|-7777-77-77-777--777-6666-666-4444-444--7777-77-77-777--777-6666-666-4444-444-|
|-7777-77-77-777--777-4444-444-2222-222--7777-77-77-777--777-4444-444-2222-222-|
|-5555-55-55-555--555--------------------5555-55-55-555--555-------------------|
GtrII

|-----------------------------------------------|
|-----------------------------------------------|
|-9999-99-99-999-999-11111111-111111--8888-888--|
|-----------------------------------------------|2x
|-7777-77-77-777-777-9-9-9-9--9-9-9---6666-666--|
|-----------------------------------------------|

then-

GtrI
(--------------3x--------------)
|------------------------------|-----------------------------------|
|------------------------------|-----------------------------------|
|--9/11-1111-11--9-9--9-9--9-9-|-6-x-8-x-9--x-1111-1111111111------|
|--9/9--9-9--9---9-9--9-9--9-9-|-7-x-9-x-11-x-1313-1313131313------|
|--9/11-1111-11--x-x--x-x--x-x-|-7-x-9-x-11-x-1313-1313131313------|
|----------------9-9--9-9--9-9-|-5-x-7-x-9--x-1111-1111111111------|

GtrII
|-------------------------------|-------------------------------|------------------------------|
|-------------------------------|-------------------------------|------------------------------|
|-13/12-1212-12-1313-1313-1313--|-13/20-2020-20--1313-1313-1313-|-9-x-11-x13-x-1616-1616161616-|
|-------------------------------|-------------------------------|------------------------------|
|-11/14-1414-14-1111-1111-1111--|-11/18-1818-18--1111-1111-1111-|-7-x-9--x11-x-1414-1414141414-|
|-------------------------------|-------------------------------|------------------------------|

Do Verse

|------------------------------|
|------------------------------|
|-----88888888-----------------|
|-22---------------------------|
|-22--66666666-----------------|
|-00---------------------------|

Do Chorus-

GtrI
|------------------------------|
|------------------------------|
|-6-66-66-6-6-6-6--------------|
|-7-77-77-7-7-7-7--------------|
|-7-77-77-7-7-7-7--------------|
|-5-55-55-5-5-5-5--------------|

GtrII
|------------------------------|
|------------------------------|
|-9-99-99-9-9-9-9--------------|
|------------------------------|
|-7-77-77-7-7-7-7--------------|
|------------------------------|

Bridge-Best part!!!
GtrI
|-------------------------------------------------------------------------|
|-------------------------------------------------------------------------|
|-------------------------------------------------------------------------|
|-------------------------------------------------------------------------|
|-------------------------------------------------------------------------|
|-0000000000000000-44444444-55555555--0000000000000000-44444444-55555555--|
GtrII
|-------------------------------------------------------------------------|
|--------------------------------------------2x---------------------------|
|-------------------------------------1313131313131313-88888888-99999999--|
|-------------------------------------------------------------------------|
|-------------------------------------1111111111111111-66666666-77777777--|
|-------------------------------------------------------------------------|

GtrI
|-------------------------------------------------------------------------|
|-------------------------------------------------------------------------|
|-------------------------------------------------------------------------|
|-2-2-xx-x-2-2-xx-x-6-6-xx-x-7-7-xx-x-2-2-xx-x-2-2-xx-x-6-6-xx-x-7-7-xx-x-|
|-2-2-xx-x-2-2-xx-x-6-6-xx-x-7-7-xx-x-2-2-xx-x-2-2-xx-x-6-6-xx-x-7-7-xx-x-|
|-0-0-xx-x-0-0-xx-x-4-4-xx-x-5-5-xx-x-0-0-xx-x-0-0-xx-x-4-4-xx-x-5-5-xx-x-|

GtrII
|----------------------------------------------|
|----------------------------------------------|
|-1313-xx-x-1313-xx-x-1616-xx-x-1818-xx-x------|
|------xx-x------xx-x------xx-x------xx-x------|2x
|-1111-xx-x-1111-xx-x-1414-xx-x-1616-xx-x------|
|----------------------------------------------|

then-
GtrI
|------------------------------|
|------------------------------|
|------------------------------|
|-44-4-444-4-44-44-9999-99-----|
|-44-4-444-4-44-44-9999-99-----|
|-22-2-222-2-22-22-7777-77-----|

GtrI
|-----------------------------------|
|-----------------------------------|
|-99-9-999-9-99-99-16161616-1616----|
|-----------------------------------|
|-77-7-777-7-77-77-14141414-1414----|
|-----------------------------------|

Do Chorus
then-

GtrI
|------------------------------------------------------------------------------|
|------------------------------------------------------------------------------|
|---------------------6666-666-4444-444----------------------6666-666-4444-444-|
|-7777-77-77-777--777-6666-666-4444-444--7777-77-77-777--777-6666-666-4444-444-|
|-7777-77-77-777--777-4444-444-2222-222--7777-77-77-777--777-4444-444-2222-222-|
|-5555-55-55-555--555--------------------5555-55-55-555--555-------------------|

GtrII


|-------------------------------------------------------------------------|
|-------------------------------------------------------------------------|
|-13131313/161616--13131313/161616--13131313-131313-11111111-111111-------|
|-------------------------------------------------------------------------|
|-11111111/141414--11111111/141414--11111111-111111-9-9-9-9--9-9-9--------|
|-------------------------------------------------------------------------|


GtrI
|-------------------------------------------------------------------------|
|-------------------------------------------------------------------------|
|-------------------------------------------------------------------------|
|-2~----------------------------------------------------------------------|
|-2~----------------------------------------------------------------------|
|-0~----------------------------------------------------------------------|

GtrII
|-------------------------------------------------------------------------|
|-------------------------------------------------------------------------|
|-9~----------------------------------------------------------------------|
|-------------------------------------------------------------------------|
|-7~----------------------------------------------------------------------|
|-------------------------------------------------------------------------|

I can't believe we ...
GtrI
|-------------------------------------------------------------------------|
|-------------------------------------------------------------------------|
|-------------------------------------------------------------------------|
|-------------------6-6-xx-x-7-7-xx-x-2-2-xx-x-2-2-xx-x-6-6-xx-x-7-7-xx-x-|
|-------------------6-6-xx-x-7-7-xx-x-2-2-xx-x-2-2-xx-x-6-6-xx-x-7-7-xx-x-|
|-------------------4-4-xx-x-5-5-xx-x-0-0-xx-x-0-0-xx-x-4-4-xx-x-5-5-xx-x-|

GtrII
|-------------------------------------------------------------------------------------|
|-------------------------------------------------------------------------------------|
|--------------------1616-xx-x-1818-xx-x-1313-xx-x-1313-xx-x-1616-xx-x-1818-xx-x-----|
|--------------------------------------------xx-x------xx-x------xx-x------xx-x-----|
|--------------------1414-xx-x-1616-xx-x-1111-xx-x-1111-xx-x-1414-xx-x-1616-xx-x-----|
|-------------------------------------------------------------------------------------|

GtrI
|-------------------------------------------------------------------------|
|-------------------------------------------------------------------------|
|-------------------------------------------------------------------------|
|-2-2-xx-x-2-2-xx-x-6-6-xx-x-7-7-xx-x-2-2-xx-x-2-2-xx-x-6-6-xx-x-77~-7777-|
|-2-2-xx-x-2-2-xx-x-6-6-xx-x-7-7-xx-x-2-2-xx-x-2-2-xx-x-6-6-xx-x-77~-7777-|
|-0-0-xx-x-0-0-xx-x-4-4-xx-x-5-5-xx-x-0-0-xx-x-0-0-xx-x-4-4-xx-x-55~-5555-|

GtrII
|----------------------------------------------|
|----------------------------------------------|
|-1313-xx-x-1313-xx-x-1616-xx-x-1818-xx-x------|
|------xx-x------xx-x------xx-x------xx-x------|2x
|-1111-xx-x-1111-xx-x-1414-xx-x-1616-xx-x------|
|----------------------------------------------|

END
GtrI
|-------------------------------------------------------------------------|
|-------------------------------------------------------------------------|
|-------------------------------------------------------------------------|
|-2~----------------------------------------------------------------------|
|-2~----------------------------------------------------------------------|
|-0~----------------------------------------------------------------------|

GtrII
|-------------------------------------------------------------------------|
|-------------------------------------------------------------------------|
|-9~----------------------------------------------------------------------|
|-------------------------------------------------------------------------|
|-7~----------------------------------------------------------------------|
|-------------------------------------------------------------------------|

Lyrics

Things are looking up, oh finally!
I thought I'd never see the day when you smile at me.
We always pull through
Oh when we try,
I'm always wrong but you're never right.
You're never right!

Honestly, can you believe we crossed the world while it's asleep?
I'd never trade it in,
coz I've always wanted this!
It's not a dream anymore!
No---o
It's not a dream anymore!
Its worth fighting for.

Could have given up so easily
I was a few cheap shots away from the end of me
Taken for granted,
almost everything that I would have died for
Just yesterday,
Just yesterday

Honestly, can you believe we crossed the world while it's asleep?
I'd never trade it in,
coz I've always wanted this!
It's not a dream anymore!
No---o
It's not a dream anymore!
Its worth fighting for.

God knows the world doesnt need another band,
(whoo-oa, whooo-oa!)
But what a waste it wouldve been!
(whoo-oa, whooo-oa!)
I can't believe we almost hung it up
(whoo-oa, whooo-oa!)
We're just getting started
(whoo-oa, whooo-oa!)

Honestly, can you believe we crossed the world while it's asleep?
I'd never trade it in,
coz I've always wanted this!
It's not a dream anymore!
No---o
It's not a dream anymore!
no---o
It's not a dream anymore!
No---o
It's not a dream anymore!
It's worth fighting for

I can't believe we almost hung it up
(whoo-oa, whooo-oa!)
We're just getting started
(whoo-oa, whooo-oa!)
I can't believe we almost hung it up
(whoo-oa, whooo-oa!)
We're just getting started

We're just getting started 
Tap to rate this tab
 
# A B C D E F G H I J K L M N O P Q R S T U V W X Y Z