Song name
# A B C D E F G H I J K L M N O P Q R S T U V W X Y Z

Paramore - Playing God tab

Tuning- Standard
Intro-
GtrI
|---------------------------------|--------------------------------|
|---------------------------------|--------------------------------|
|-----4-------4-------4-------4---|-----4-------4-------4------4---|
|---2---2---2---2---2---2---2---2-|---2---2---2---2---2---2---2--2-|
|-4-------4-------4-------2-------|-4-------4-------4-------2------|
|---------------------------------|--------------------------------|

|---------------------------------|--------------------------------|
|-----0-------0-------0-------0---|-----0-------0-------0-------0--|
|---------------------------------|--------------------------------|
|---6---6---6---6---6---6---6---6-|---6---6---6---6---6---6---6--6-|
|-7-------7-------7-------6-------|-7-------7-------6-------6------|
|---------------------------------|--------------------------------|

GtrII
|---------------------------------|--------------------------------|
|---------------------------------|--------------------------------|
|-----8-------8-------8-------9---|-----8-------8-------8-------9--|
|---6---6---6---6---6---6---6---6-|---6---6---6---6---6---6---6--6-|
|-7-------7-------7-------6-------|-7-------7-------7-------6------|
|---------------------------------|--------------------------------|

|---------------------------------|--------------------------------|
|---------------------------------|--------------------------------|
|-----11------11------11------11--|-----11------11------11-----11--|
|---9---9---9---9---9---9---9---9-|---9---9---9---9---9---9---9--9-|
|-11-----11------11------11-------|-11-----11------11------11------|
|---------------------------------|--------------------------------|

Verse-Do intro

Pre-Chorus
GtrI
|--------------------------------|
|--------------------------------|
|--6-6-6-6-6-6-6-6-8-8--8-8-8----|
|--------------------------------|
|--4-4-4-4-4-4-4-4-6-6--6-6-6----|
|--------------------------------|
   * * * * * * * * * * 
GtrII
|--------------------------------|
|--------------------------------|
|--6-6-6-6-6-6-6-6-8-8--8-8-8----|
|--7-7-7-7-7-7-7-7-9-9--9-9-9----|
|--7-7-7-7-7-7-7-7-9-9--9-9-9----|
|--5-5-5-5-5-5-5-5-7-7--7-7-7----|
   * * * * * * * * * *   

Chorus-

GtrI
|--------------------------------------------------|
|--------------------------------------------------|
|-9/11-9/11-9--9/11-9/11-9------66-666-6-88-888-8--|
|---------------------------2x---------------------|
|-7/9--7/9--7--7/9--7/9--7------44-444-4-66-666-6--|
|--------------------------------------------------|

|-------------------------------x-----------------------|
|-------------------------------x-----------------------|
|-44-444-4-66-666-6-66-666-6-8--x-----------------------|
|-------------------------------x-----------------------|
|-22-222-2-44-444-4-44-444-4-6--x-----------------------|
|-------------------------------x-----------------------|
GtrII
|--------------------------------------------------------|
|--------------------------------------------------------|
|-11-111-1-11-111-1--66-666-666-666-6-66-666-6-88-888-8--|
|-22-222-2-22-222-2--66-666-666-666-6-77-777-7-99-999-9--|
|-22-222-2-22-222-2--44-444-444-444-4-77-777-7-99-999-9--|
|-00-000-0-00-000-0-------------------55-555-5-77-777-7--|

|------------------------------x-------------------------|
|------------------------------x-------------------------|
|----------66-666-6-66-666-6-8-x-------------------------|
|-66-666-6-77-777-7-77-777-7-9-x-------------------------|
|-66-666-6-77-777-7-77-777-7-9-x-------------------------|
|-44-444-4-55-555-5-55-555-5-7-x-------------------------|

then...
GtrI
|---------------------------------|--------------------------------|
|---------------------------------|--------------------------------|
|-----4-------4-------4-------4---|-----4-------4-------4------4---|
|---2---2---2---2---2---2---2---2-|---2---2---2---2---2---2---2--2-|
|-4-------4-------4-------2-------|-0-------0-------0-------2------|
|---------------------------------|--------------------------------|

GtrII
|---------------------------------|--------------------------------|
|---------------------------------|--------------------------------|
|-----8-------8-------8-------9---|-----11------11------11-----11--|
|---6---6---6---6---6---6---6---6-|---9---9---9---9---9---9---9--9-|
|-7-------7-------7-------6-------|-11-----11------11------11------|
|---------------------------------|--------------------------------|

Do verse-

Chorus-
GtrI
|--------------------------------------------------|
|--------------------------------------------------|
|-9/11-9/11-9--9/11-9/11-9------66-666-6-88-888-8--|
|---------------------------2x---------------------|
|-7/9--7/9--7--7/9--7/9--7------44-444-4-66-666-6--|
|--------------------------------------------------|

|-------------------------------------------------------|
|-------------------------------------------------------|
|-44-444-4-66-666-6-66-666-6-8-8-8-8-8-8-8-8------------|
|-------------------------------------------------------|
|-22-222-2-44-444-4-44-444-4-6-6-6-6-6-6-6-6------------|
|-------------------------------------------------------|
GtrII
|--------------------------------------------------------|
|--------------------------------------------------------|
|-11-111-1-11-111-1--66-666-666-666-6-66-666-6-88-888-8--|
|-22-222-2-22-222-2--66-666-666-666-6-77-777-7-99-999-9--|
|-22-222-2-22-222-2--44-444-444-444-4-77-777-7-99-999-9--|
|-00-000-0-00-000-0-------------------55-555-5-77-777-7--|

|--------------------------------------------------------|
|--------------------------------------------------------|
|----------66-666-6-66-666-6-8-8-8-8-8-8-8-8-------------|
|-66-666-6-77-777-7-77-777-7-9-9-9-9-9-9-9-9-------------|
|-66-666-6-77-777-7-77-777-7-9-9-9-9-9-9-9-9-------------|
|-44-444-4-55-555-5-55-555-5-7-7-7-7-7-7-7-7-------------|

Interlude-
GtrI
|---------------------------------------------------------------------|
|---------------------------------------------------------------12----|
|-6-6-6-6-6-6-6-6-8-8-8-8-8-8-8-8-9-9-9-9-9-9-9-9--111111-9-8-9---9---|
|-7-7-7-7-7-7-7-7-9-9-9-9-9-9-9-9-1111111111111111-111111-------------|
|---------------------------------------------------------------------|
|---------------------------------------------------------------------|

|---------------------------------------------------------------------|
|---------------------------------------------------------------------|
|-6-6-6-6-6-6-6-6-8-8-8-8-8-8-8-8-9-9-9-9-9-9-9-9--111111-8-8-8-8-8---|
|-7-7-7-7-7-7-7-7-9-9-9-9-9-9-9-9-1111111111111111-111111-9-9-9-9-9---|
|---------------------------------------------------------------------|
|---------------------------------------------------------------------|

GtrII
|---------------------------------------------------------------------|
|---------------------------------------------------------------------|
|--6-6-6-6-6-6-6-6-8-8-8-8-8-8-8-8-9-9-9-9-9-9-9-9--------------------|
|--7-7-7-7-7-7-7-7-9-9-9-9-9-9-9-9-1111111111111111-6-6-6-6-6-6-6-6---|2x
|--7-7-7-7-7-7-7-7-9-9-9-9-9-9-9-9-1111111111111111-6-6-6-6-6-6-6-6---|
|--5-5-5-5-5-5-5-5-7-7-7-7-7-7-7-7-9-9-9-9-9-9-9-9--4-4-4-4-4-4-4-4---|


Bridge-

GtrI
|---------------------------------------------------------------------|
|---------------------------------------------------------------12----|
|-6-6-6-6-6-6-6-6-8-8-8-8-8-8-8-8-9-9-9-9-9-9-9-9--111111-9-8-9---9---|
|-7-7-7-7-7-7-7-7-9-9-9-9-9-9-9-9-1111111111111111-111111-------------|
|---------------------------------------------------------------------|
|---------------------------------------------------------------------|

|---------------------------------------------------------------------|
|-121212121212-10-10-99999999-121212121212-14-14-9999-----------------|
|------------------------------------------------------11111111--9~---|
|---------------------------------------------------------------------|
|---------------------------------------------------------------------|
|---------------------------------------------------------------------|

GtrII
|---------------------------------------------------------------------|
|---------------------------------------------------------------------|
|--6-6-6-6-6-6-6-6-8-8-8-8-8-8-8-8-9-9-9-9-9-9-9-9--------------------|
|--7-7-7-7-7-7-7-7-9-9-9-9-9-9-9-9-1111111111111111-6-6-6-6-6-6-6-6---|then B
|--7-7-7-7-7-7-7-7-9-9-9-9-9-9-9-9-1111111111111111-6-6-6-6-6-6-6-6---|
|--5-5-5-5-5-5-5-5-7-7-7-7-7-7-7-7-9-9-9-9-9-9-9-9--4-4-4-4-4-4-4-4---|



Chorus-

GtrI
|----------------------------------------------------------------------|
|----------------------------------------------------------------------|
|---------------------9/11-9/11-9--9/11-9/11-9------66666666-88888888--|
|----------------------------------------------------------------------|
|---------------------7/9--7/9--7--7/9--7/9--7------44444444-66666666--|
|----------------------------------------------------------------------|

|-------------------------------------------------------------------|
|-------------------------------------------------------------------|
|-44444444-66--99-88888---6-6-6-6-6-6-6-6-8-8-8-8-8-8-8-8-----------|
|-------------------------------------------------------------------|
|-22222222-44--77-66666---4-4-4-4-4-4-4-4-6-6-6-6-6-6-6-6-----------|
|-------------------------------------------------------------------|

GtrII
|--------------------------------------------------------|
|--~-----------------------------------------------------|
|-1~-----------------6666666666666666-66666666-88888888--|
|-2~-----------------6666666666666666-77777777-99999999--|
|-2~-----------------4444444444444444-77777777-99999999--|
|-0~----------------------------------55555555-77777777--|

|------------------------------------------------------------------|
|------------------------------------------------------------------|
|-----------66-44444--6-6-6-6-6-6-6-6-6-8-8-8-8-8-8-8-8------------|
|-66666666--66-44444--7-7-7-7-7-7-7-7-7-9-9-9-9-9-9-9-9------------|
|-66666666--44-22222--7-7-7-7-7-7-7-7-7-9-9-9-9-9-9-9-9------------|
|-44444444------------5-5-5-5-5-5-5-5-5-7-7-7-7-7-7-7-7------------|

Do Chorus
End B
Tap to rate this tab
 
# A B C D E F G H I J K L M N O P Q R S T U V W X Y Z