Song name
# A B C D E F G H I J K L M N O P Q R S T U V W X Y Z

Paramore - Where The Lines Overlap Acoustic tab

 
PAramore-WHERE THE LINES OVERLAP  acosutic

Tuning- Standard

Intro-
 E                      A         E                      A
|-------------------------------------------------------------|
|-------------------------------------------------------------|
|-1-1-1-1-1-1-1-1-1-1-1-2-2-44---1-1-1-1-1-1-1-1-1-1-2-2-44---|
|-2-2-2-2-2-2-2-2-2-2-2-2-2-44---2-2-2-2-2-2-2-2-2-2-2-2-44---|
|-2-2-2-2-2-2-2-2-2-2-2-0-0-22---2-2-2-2-2-2-2-2-2-2-0-0-22---|
|-0-0-0-0-0-0-0-0-0-0-0----------0-0-0-0-0-0-0-0-0-0----------|


Verse
E                      A        E                      A
|-------------------------------------------------------------|
|-------------------------------------------------------------|
|-1-1-1-1-1-1-1-1-1-1-1-2-2-44---1-1-1-1-1-1-1-1-1-1-2-2-44---|
|-2-2-2-2-2-2-2-2-2-2-2-2-2-44---2-2-2-2-2-2-2-2-2-2-2-2-44---|
|-2-2-2-2-2-2-2-2-2-2-2-0-0-22---2-2-2-2-2-2-2-2-2-2-0-0-22---|
|-0-0-0-0-0-0-0-0-0-0-0----------0-0-0-0-0-0-0-0-0-0----------|
E                      A        C#m                    B
|----------------------------------------------------------------|
|----------------------------------------------------------------|
|-6-6-6-6-6-6-6-6-6-6-6-2-2-44---6-6-6-6-6-6-6-6-6-6-6-4-4-4-4-4-|
|-6-6-6-6-6-6-6-6-6-6-6-2-2-44---6-6-6-6-6-6-6-6-6-6-6-4-4-4-4-4-|
|-4-4-4-4-4-4-4-4-4-4-4-0-0-22---4-4-4-4-4-4-4-4-4-4-4-2-2-2-2-2-|
|----------------------------------------------------------------|

E                       A        E                   A
|-------------------------------------------------------------|
|-------------------------------------------------------------|
|-1-1-1-1-1-1-1-1-1-1-1-2-2-44---1-1-1-1-1-1-1-1-1-1-2-2-44---|
|-2-2-2-2-2-2-2-2-2-2-2-2-2-44---2-2-2-2-2-2-2-2-2-2-2-2-44---|
|-2-2-2-2-2-2-2-2-2-2-2-0-0-22---2-2-2-2-2-2-2-2-2-2-0-0-22---|
|-0-0-0-0-0-0-0-0-0-0-0----------0-0-0-0-0-0-0-0-0-0----------|
 C#m                      E        C#m                 B
|----------------------------------------------------------------|
|----------------------------------------------------------------|
|-6-6-6-6-6-6-6-6-6-6-6-9-9-999--6-6-6-6-6-6-6-6-6-6-6-4-4-4-4-4-|
|-6-6-6-6-6-6-6-6-6-6-6-9-9-999--6-6-6-6-6-6-6-6-6-6-6-4-4-4-4-4-|
|-4-4-4-4-4-4-4-4-4-4-4-7-7-777--4-4-4-4-4-4-4-4-4-4-4-2-2-2-2-2-|
|----------------------------------------------------------------|
  A
------|
------|
--6---|
--7---|
--7---|
--5---|

Chorus-E         C#m               E                 A
|-----------------------------------------------------------------|
|-----------------------------------------------------------------|
|-1-1-1-1-1-1-1-1-6-6-6-6-6-6-6-6-1-1-1-1-1-1-1-1-6-6-6-6-6-6-6-6-|
|-2-2-2-2-2-2-2-2-6-6-6-6-6-6-6-6-2-2-2-2-2-2-2-2-7-7-7-7-7-7-7-7-|
|-2-2-2-2-2-2-2-2-4-4-4-4-4-4-4-4-2-2-2-2-2-2-2-2-7-7-7-7-7-7-7-7-|
|-0-0-0-0-0-0-0-0-----------------0-0-0-0-0-0-0-0-5-5-5-5-5-5-5-5-|
C#m                A               E                 A
|-----------------------------------------------------------------|
|-----------------------------------------------------------------|
|-6-6-6-6-6-6-6-6-2-2-2-2-2-2-2-2-1-1-1-1-1-1-1-1-4-4-4-4-4-4-4-4-|
|-6-6-6-6-6-6-6-6-2-2-2-2-2-2-2-2-2-2-2-2-2-2-2-2-4-4-4-4-4-4-4-4-|2x
|-4-4-4-4-4-4-4-4-0-0-0-0-0-0-0-0-2-2-2-2-2-2-2-2-2-2-2-2-2-2-2-2-|
|---------------------------------0-0-0-0-0-0-0-0-----------------|

Verse-then
 A    B
--------------|
--------------|
-66-66-8------|
-77-77-9------|
-77-77-9------|
-55-55-7------|

Do Chorus
  
  C#m             B/Eb             E              A 
|-----------------------------------------------------------------|
|-----------------------------------------------------------------|
|-6-6-6-6-6-6-6-6-8-8-8-8-8-8-8-8-9-9-9-9-9-9-9-9-----------------|
|-6-6-6-6-6-6-6-6-9-9-9-9-9-9-9-9-9-9-9-9-9-9-9-9-7-7-7-7-7-7-7-7-|
|-4-4-4-4-4-4-4-4-6-6-6-6-6-6-6-6-7-7-7-7-7-7-7-7-7-7-7-7-7-7-7-7-|
|-------------------------------------------------5-5-5-5-5-5-5-5-|
   * * * * * * * * * * * * * * * * * * * * * * * * * * * * * * * *
    C#m             B/Eb             E              A 
|-----------------------------------------------------------------|
|-----------------------------------------------------------------|
|-6-6-6-6-6-6-6-6-8-8-8-8-8-8-8-8-9-9-9-9-9-9-9-9-6-6-6-6-6-6-6-6-|
|-6-6-6-6-6-6-6-6-9-9-9-9-9-9-9-9-9-9-9-9-9-9-9-9-7-7-7-7-7-7-7-7-|
|-4-4-4-4-4-4-4-4-6-6-6-6-6-6-6-6-7-7-7-7-7-7-7-7-7-7-7-7-7-7-7-7-|
|-------------------------------------------------5-5-5-5-5-5-5-5-|
   * * * * * * * * * * * * * * * * * * * * * * * *
  C#m             B/Eb             E              A 
|-----------------------------------------------------------------|
|-----------------------------------------------------------------|
|-6-6-6-6-6-6-6-6-8-8-8-8-8-8-8-8-9-9-9-9-9-9-9-9-6-6-6-6-6-6-6-6-|
|-6-6-6-6-6-6-6-6-9-9-9-9-9-9-9-9-9-9-9-9-9-9-9-9-7-7-7-7-7-7-7-7-|
|-4-4-4-4-4-4-4-4-6-6-6-6-6-6-6-6-7-7-7-7-7-7-7-7-7-7-7-7-7-7-7-7-|
|-------------------------------------------------5-5-5-5-5-5-5-5-|
  C#m             B/Eb             E               
|---------------------------------------------------------|
|---------------------------------------------------------|
|-6-6-6-6-6-6-6-6-8-8-8-8-8-8-8-8-9-----------------------|
|-6-6-6-6-6-6-6-6-9-9-9-9-9-9-9-9-9-----------------------|
|-4-4-4-4-4-4-4-4-6-6-6-6-6-6-6-6-7-----------------------|
|---------------------------------------------------------|


Chorus-
E                  A              E              A 
|-----------------------------------------------------------------|
|-----------------------------------------------------------------|
|-1---------------6-6-6-6-6-6-6-6-1-1-1-1-1-1-1-1-6-6-6-6-6-6-6-6-|
|-2---------------7-7-7-7-7-7-7-7-2-2-2-2-2-2-2-2-7-7-7-7-7-7-7-7-|
|-2---------------7-7-7-7-7-7-7-7-2-2-2-2-2-2-2-2-7-7-7-7-7-7-7-7-|
|-0---------------5-5-5-5-5-5-5-5-0-0-0-0-0-0-0-0-5-5-5-5-5-5-5-5-|
  C#m             A               E              A 
|-----------------------------------------------------------------|
|-----------------------------------------------------------------|
|-6-6-6-6-6-6-6-6-2-2-2-2-2-2-2-2-1-1-1-1-1-1-1-1-4-4-4-4-4-4-4-4-|
|-6-6-6-6-6-6-6-6-2-2-2-2-2-2-2-2-2-2-2-2-2-2-2-2-4-4-4-4-4-4-4-4-|2x
|-4-4-4-4-4-4-4-4-0-0-0-0-0-0-0-0-2-2-2-2-2-2-2-2-2-2-2-2-2-2-2-2-|
|---------------------------------0-0-0-0-0-0-0-0-----------------|


Outro-
E                  A              E              A 
|-----------------------------------------------------------------|
|-----------------------------------------------------------------|
|-1-1-1-1-1-1-1-1-6-6-6-6-6-6-6-6-1-1-1-1-1-1-1-1-6-6-6-6-6-6-6-6-|
|-2-2-2-2-2-2-2-2-7-7-7-7-7-7-7-7-2-2-2-2-2-2-2-2-7-7-7-7-7-7-7-7-|till fade
|-2-2-2-2-2-2-2-2-7-7-7-7-7-7-7-7-2-2-2-2-2-2-2-2-7-7-7-7-7-7-7-7-|
|-0-0-0-0-0-0-0-0-5-5-5-5-5-5-5-5-0-0-0-0-0-0-0-0-5-5-5-5-5-5-5-5-|
Tap to rate this tab
 
# A B C D E F G H I J K L M N O P Q R S T U V W X Y Z