Song name
# A B C D E F G H I J K L M N O P Q R S T U V W X Y Z

Paramore - Turn It Off Acoustic tab

Turn it off Acoustic

Tuning - standard

Intro-Am-G/B-C-F 4x

GtrI
xxx|-------------------------------------|------------------------------|
xxx|-------------------------------------|------------------------------|
xxx|-------------------------------------|------------------------------|
xxx|-/10-9-10-9--------------------------|-/10-9-10-9-------------------|
xxx|------------10-5-5--7-7/8--7--000~---|------------10-5-5-7-7/8-7----|
xxx|-------------------------------------|------------------------------|

|-------------------------------------|--------------------------------|
|-/13-12-13-12------------------------|-/13-12-13-12-------------------|
|--------------12--7-7--9-9/10-9------|-------------12--7-7-9-9/10-9-7-|
|--------------------------------777--|--------------------------------|
|-------------------------------------|--------------------------------|
|-------------------------------------|--------------------------------|
 

Verse-Am C Dm F 2x
|-------0-------|-------0-------|-------0-------|-------0---------|
|-----1---1---1-|-----1---1---1-|-----1---1---1-|-----1---1---1---|
|---2-------2---|---2-------2---|---2-------2---|---2-------2-----|
|---------------|---------------|-0-------------|-3---------------|2x
|-0-------------|-3-------------|---------------|-----------------|
|---------------|---------------|---------------|-----------------|

Refrain-Am C Dm F 2x
GtrI
|-----12--15--12---|-----12------12---|-----12------12---|-----10------10---|
|---13--13--13--13-|---13--13--13--13-|---13--13--13--13-|---13--13--13--13-|
|-14---------------|-12------12-------|-10------10-------|-12------12-------|
|------------------|------------------|------------------|------------------|
|------------------|------------------|------------------|------------------|
|------------------|------------------|------------------|------------------|

|-----12--15--12---|-----12------12---|-----12------12---|-10~--------------|
|---13--13--13--13-|---13--13--13--13-|---13--13--13--13-|-13~--------------|
|-14---------------|-12------12-------|-10------10-------|-12~--------------|
|------------------|------------------|------------------|------------------|
|------------------|------------------|------------------|------------------|
|------------------|------------------|------------------|------------------|



Chorus-C  G  Am  F   G 2x
GtrI
|-------------------------------------------------------------|
|-------------------------------------------------------------|
|-7-55-7-5555-4-4-4-4-4-4-4--44---55--12121212----4-55-22-555-|
|-5-55-5-5555-5-5-5-5-5-5-5--xx---xx---x-x-x-x----x-xx-xx-xxx-|2x
|----------------------------22---33--10101010----2-33-22-333-|
|-------------------------------------------------------------|



then

GtrI
|-------------------------------------|
|-------------------------------------|
|-------------------------------------|
|-/10-9-10-9-5------------------------|
|--------------5-5--7-s-8--7--000~----|
|-------------------------------------|

|---------------------------------------|
|-/13-12-13-12--------------------------|
|-------------12--7-7-9-9/10-9-10-s-12~-|
|---------------------------------------|
|---------------------------------------|
|---------------------------------------|

Do Verse-chorus


Solo-Am-G/B-C-F 4x


GtrI
|-------------------------------------|-------------------------------------|
|-------------------------------------|-/13-12-13-12------------------------|
|-------------------------------------|-------------12--7-7-9-9/10-9--------|
|-/10-9-10-9-5------------------------|-------------------------------------|
|--------------5-5--7-s-8--7--000~----|-------------------------------------|
|-------------------------------------|-------------------------------------|

|----8---10-8----13-12-------|----------20-19------15-17-15---------|
|---------------------15-13--|-----17-----------17------------13----|
|--9---9---------------------|-----------------------------14-------|
|----------------------------|--19---19-------------------------14~-|
|----------------------------|--------------------------------------|
|----------------------------|--------------------------------------|



Bridge-Am C G F 2x
|--------------------------------------------------------|
|-----------13~-----------15~------------13~-------------|
|-----------12~-----------14~-14---------14~--14---------|
|-----------14~-----------12-------------15~-------------|
|--------------------------------------------------------|
|--------------------------------------------------------|

|--------------------------------------------------------|
|-13~--------13~-----------15~------------13~----15~-----|
|-14~--------12~-----------14~------------14~----16~-----|
|-14~--------14~-----------12-14~---------15~------------|
|--------------------------------------------------------|
|--------------------------------------------------------|


Bridge-Am C F G 2x
|-----------------------------------------------------------------------|
|-----------------------------------------------------------------------|
|-7-5-5-7-5-5-7-5-7-5-5-7-5-5-7-5-7-5-5-7-5-5-7-5-7-4-4-4-4-4-4-4-4-4---|
|-5-5-5-5-5-5-5-5-5-5-5-5-5-5-5-5-5-5-5-5-5-5-5-5-5-5-5-5-5-5-5-5-5-5---|2x
|-----------------------------------------------------------------------|
|-----------------------------------------------------------------------|

Do  Chorus-

then
GtrII do chorus chords

GtrI
|-12-1010-1515-121212---12-1010-1515-121212--77-88-10101010--55-77--888-|
|-----------------------------------------------------------------------|
|-----------------------------------------------------------------------|2x
|-----------------------------------------------------------------------|
|-----------------------------------------------------------------------|
|-----------------------------------------------------------------------|


end C
|-12~---------------|
|-13~---------------|
|-------------------|
|-------------------|
|-------------------|
|-------------------
Tap to rate this tab
 
# A B C D E F G H I J K L M N O P Q R S T U V W X Y Z