Song name
# A B C D E F G H I J K L M N O P Q R S T U V W X Y Z

Paramore - Feeling Sorry tab

Intro-
GtrI
|------------------------|-----------------------------------------------|
|------------------------|-----------------------------------------------|
|-11-11-11-1111--13-9----|-13-13-13-1313--13-13----13-13-13-13--11-11-11-|
|---------------------2x-|-----------------------------------------------|
|-9--9--9--9-9---11-7----|-11-11-11-1111--11-11----11-11-11-11--9--9--9--|
|------------------------|-----------------------------------------------|

|------------------------|-----------------------------------------------|
|------------------------|-----------------------------------------------|
|-11-11-11-1111--13-9----|-13-13-13-1313--13-13----13-13-13-13--16-16-16-|
|---------------------2x-|-----------------------------------------------|
|-9--9--9--9-9---11-7----|-11-11-11-1111--11-11----11-11-11-11--14-14-14-|
|------------------------|-----------------------------------------------|

GtrII
|--------------------------------------------------------|
|--------------------------------------------------------|
|------------------------------6-6-6-6-666--6-6-6-6-444--|
|-2-2-2--2-222--2-2-2--2-666---6-6-6-6-666--6-6-6-6-444--|2x
|-2-2-2--2-222--2-2-2--2-666---4-4-4-4-444--4-4-4-4-222--|
|-0-0-0--0-000--0-0-0--0-444-----------------------------|

Verse-
GtrI
|----------------------------------------------------------|
|----------------------------------------------------------|
|----------------------------------------------------------|
|-----------6--------------6-----6-6-6-66-66--66-6-6-4-4-4-|
|-9-9-9--99---7--9-9-9--99---7-----------------------------|
|----------------------------------------------------------|
  * * *  ** * *  * * *  ** * *   * * * ** **  ** * * * * * 

|----------------------------------------------------------|
|----------------------------------------------------------|
|----------------------------------------------------4-4-4-|
|-----------6--------------6-----6-6-6-66-66--66-6-6-4-4-4-|
|-9-9-9--99---7--9-9-9--99---7-----------------------2-2-2-|
|----------------------------------------------------------|
  * * *  ** * *  * * *  ** * *   * * * ** **  ** * *   

GtrII
|----------------------------------------------------------|
|----------------------------------------------------------|
|----------------------------------------------------------|
|------------------------------6-6-6-66-66--66-6-6-4-4-4---|
|-2-2-2--22-22--22-2-2-6-6-6---4-4-4-44-44--44-4-4-2-2-2---|
|-0-0-0--00-00--00-0-0-4-4-4-------------------------------|
  * * *  ** **  ** * * * * *   * * * ** **  ** * * * * * 

|----------------------------------------------------------|
|----------------------------------------------------------|
|--------------------------------------------------4-4-4---|
|------------------------------6-6-6-66-66--66-6-6-4-4-4---|
|-2-2-2--22-22--22-2-2-6-6-6---4-4-4-44-44--44-4-4-2-2-2---|
|-0-0-0--00-00--00-0-0-4-4-4-------------------------------|
  * * *  ** **  ** * * * * *   * * * ** **  ** * *  

Refrain-
|-0-00000-0000---0-00000-0000--0-00000-0000-0-00000-0000-|
|-0-00000-0000---0-00000-0000--5-55555-5555-0-00000-0000-|
|-6-66666-6666---8-88888-8888--6-66666-6666-x-xxxxx-xxxx-|
|-7-77777-7777---9-99999-9999--6-66666-6666-6-66666-6666-|
|-7-77777-7777---9-99999-9999--4-44444-4444-6-66666-6666-|
|-5-55555-5555---7-77777-7777---------------4-44444-4444-|


|-0-00000-0000---0-00000-0000--0-00000-0000-0-00000-0000-|
|-0-00000-0000---0-00000-0000--5-55555-5555-0-00000-0000-|
|-6-66666-6666---8-88888-8888--6-66666-6666-8-88888-8888-|
|-7-77777-7777---9-99999-9999--6-66666-6666-x-xxxxx-xxxx-|
|-7-77777-7777---9-99999-9999--4-44444-4444-6-66666-6666-|
|-5-55555-5555---7-77777-7777----------------------------|


Chorus-
GtrI
|-------------------------------------------------------------|
|-------------------------------------------------------------|
|-13-16/-6-6-6---13-16/--4-4-4--13-16/-6-6-6---13-16/--111111-|
|-------------------------------------------------------------|
|-11-14/-4-4-4---11-14/--6-6-6--11-14/-4-4-4---11-14/--9-9-9--|
|-------------------------------------------------------------|

|--------------------------------|
|--------------------------------|
|-13-16/-6-6-6---13-16/--4-4-4---|
|--------------------------------|
|-11-14/-4-4-4---11-14/--6-6-6---|
|--------------------------------|

GtrII
|-----------------------------------------------|
|-----------------------------------------------|
|------222-------4-4-4-------222--6-6-4-4-4-----|
|-2-2--222--2-2--4-4-4--2-2--222--6-6-4-4-4-----|
|-2-2--000--2-2--2-2-2--2-2--000--4-4-2-2-2-----|
|-0-0-------0-0---------0-0---------------------|

|-----------------------------------------------|
|-----------------------------------------------|
|------222-------4-4-4-------222--6-6-4---------|
|-2-2--222--2-2--4-4-4--2-2--222--6-6-4---------|
|-2-2--000--2-2--2-2-2--2-2--000--4-4-2---------|
|-0-0-------0-0---------0-0---------------------|

DO Intro-

Verse-
GtrI
GtrI
|----------------------------------------------------------|
|----------------------------------------------------------|
|----------------------------------------------------4~----|
|-----------6--------------6-----6-6-6-66-66--66-6-6-4~----|
|-9-9-9--99---7--9-9-9--99---7-----------------------2~----|
|----------------------------------------------------------|
  * * *  ** * *  * * *  ** * *   * * * ** **  ** * *  

|----------------------------------------------------------|
|----------------------------------------------------------|
|----------------------------------------------------4-4-4-|
|-----------6--------------6-----6-6-6-66-66--66-6-6-4-4-4-|
|-9-9-9--99---7--9-9-9--99---7-----------------------2-2-2-|
|----------------------------------------------------------|
  * * *  ** * *  * * *  ** * *   * * * ** **  ** * *  
|----------------------------------------------------------|
|----------------------------------------------------------|
|----------------------------------------------------------|
|------------------------------6-6-6-66-66--66-6-6-4~------|
|-2-2-2--22-22--22-2-2-6-6-6---4-4-4-44-44--44-4-4-2~------|
|-0-0-0--00-00--00-0-0-4-4-4-------------------------------|
  * * *  ** **  ** * * * * *   * * * ** **  ** * *  

|----------------------------------------------------------|
|----------------------------------------------------------|
|--------------------------------------------------4-4-4---|
|------------------------------6-6-6-66-66--66-6-6-4-4-4---|
|-2-2-2--22-22--22-2-2-6-6-6---4-4-4-44-44--44-4-4-2-2-2---|
|-0-0-0--00-00--00-0-0-4-4-4-------------------------------|
  * * *  ** **  ** * * * * *   * * * ** **  ** * *  

Refrain-

Chorus-

Bridge-
GtrI
|------------------------------------------|
|------------------------------------------|
|--6-6-6-6-6-6--8-8-8-8-8-8--9--11-14-13---|
|------------------------------------------|2x
|--4-4-4-4-4-4--6-6-6-6-6-6--7--9--12-11---|
|------------------------------------------|

|------------------------------------------------------|
|------------------------------------------------------|
|--6-6-6-6-6-6-6-6-6-6-6-6--111111111111--111111111111-|
|------------------------------------------------------|2x
|--4-4-4-4-4-4-4-4-4-4-4-4--9-9-9-9-9-9---9-9-9-9-9-9--|
|------------------------------------------------------|

GtrII
|------------------------------------------|
|------------------------------------------|
|--2-2-2-2-2-2--4-4-4-4-4-4--6--8----------|
|--2-2-2-2-2-2--4-4-4-4-4-4--6--8---2--4---|2x
|--0-0-0-0-0-0--2-2-2-2-2-2--4--6---2--4---|
|-----------------------------------0--2---|

|------------------------------------|
|------------------------------------|
|--2-2-2-2-2-2-----4-4-4-4-4-4-------|
|--2-2-2-2-2-2-2x--4-4-4-4-4-4-2x----|
|--0-0-0-0-0-0-----2-2-2-2-2-2-------|
|------------------------------------|

Bridge2-

GtrI
|---------------|--------------|-------------|------------------|
|---------------|--------------|-------------|------------------|
|----4-4--------|----4-4-------|---4-4-------|------------------|
|-6-------------|--6-----------|-6-----------|------------------|
|--------4-4-4--|-------6-6-6--|-------4-4-4-|-7-7-7-9-9--6-6-6-|
|---------------|--------------|-------------|------------------|

|---------------|--------------|-------------|------------------|
|---------------|--------------|-------------|------------------|
|----4-4--------|----4-4-------|---4-4-------|-9----11--8-------|
|-6-------------|--6-----------|-6-----------|------------------|
|--------4-4-4--|-------6-6-6--|-------4-4-4-|-7----9---6-------|
|---------------|--------------|-------------|------------------|

GtrII
|------------------------------------------------------|
|------------------------------------------------------|
|-161616161616161616161616-161616161616161616161616----|
|-161616161616161616161616-161616161616161616161616----|4x
|-141414141414141414141414-141414141414141414141414----|
|------------------------------------------------------|

CHorus-
GtrI
|------------------------|-----------------------------------------------|
|------------------------|-----------------------------------------------|
|-11-11-11-1111--13-9----|-13-13-13-1313--13-13----13-13-13-13--11-11-11-|
|---------------------2x-|-----------------------------------------------|
|-9--9--9--9-9---11-7----|-11-11-11-1111--11-11----11-11-11-11--9--9--9--|
|------------------------|-----------------------------------------------|

|--------12---7--9----|-------12--------------|----9-9-9---9------------|
|------------------9--|--9h10-----9h1099------|-12-121212----11-10-9----|
|-9h11p9--------------|------------------11-9-|----------------------11-|
|---------------------|-----------------------|-------------------------|
|---------------------|-----------------------|-------------------------|
|---------------------|-----------------------|-------------------------|

GtrII do Chorus
then
GtrI
|------------------------|-----------------------------------------------|
|------------------------|-----------------------------------------------|
|-11-11-11-1111--13-9----|-13-13-13-1313--13-13----13-13-13-13--11-11-11-|
|---------------------2x-|-----------------------------------------------|
|-9--9--9--9-9---11-7----|-11-11-11-1111--11-11----11-11-11-11--9--9--9--|
|------------------------|-----------------------------------------------|

|------------------------|-----------------------------------------------|
|------------------------|-----------------------------------------------|
|-11-11-11-1111--13-9----|-13-13-13-1313--13-13----13-13-13-13--16-16-16-|
|---------------------2x-|-----------------------------------------------|
|-9--9--9--9-9---11-7----|-11-11-11-1111--11-11----11-11-11-11--14-14-14-|
|------------------------|-----------------------------------------------|


GtrII Do intro


Tap to rate this tab
# A B C D E F G H I J K L M N O P Q R S T U V W X Y Z