Song name
# A B C D E F G H I J K L M N O P Q R S T U V W X Y Z

Paramore - Where The Lines Overlap tab

-------------------------------------------------------------------------------
                        WHERE THE LINES OVERLAP - Paramore
-------------------------------------------------------------------------------
Tabbed by: Newton
Email: norphin@live.com
Feel free to contact about corrections and such

Tuning: Standard

[Intro]
e|---------------------------------------------------------------|
B|---------------------------------------------------------------|
G|-1-1-1-1-1-1-1-1-1-1-1-6--8-8---1-1-1-1-1-1-1-1-1-1-1-6--8-8---|
D|-2-2-2-2-2-2-2-2-2-2-2-7--9-9---2-2-2-2-2-2-2-2-2-2-2-7--9-9---|
A|-2-2-2-2-2-2-2-2-2-2-2-x--x-x---2-2-2-2-2-2-2-2-2-2-2-x--x-x---|
E|-0-0-0-0-0-0-0-0-0-0-0-5--7-7---0-0-0-0-0-0-0-0-0-0-0-5--7-7---|


[Verse 1]
e|---------------------------------------------------------------|
B|---------------------------------------------------------------|
G|-1-1-1-1-1-1-1-1-1-1-1-6--8-8---1-1-1-1-1-1-1-1-1-1-1-6--8-8---|
D|-2-2-2-2-2-2-2-2-2-2-2-7--9-9---2-2-2-2-2-2-2-2-2-2-2-7--9-9---|
A|-2-2-2-2-2-2-2-2-2-2-2-x--x-x---2-2-2-2-2-2-2-2-2-2-2-x--x-x---|
E|-0-0-0-0-0-0-0-0-0-0-0-5--7-7---0-0-0-0-0-0-0-0-0-0-0-5--7-7---|

e|----------------------------------------------------------------|
B|----------------------------------------------------------------|
G|-----------------------9--9-9-----------------------------------|
D|-6-6-6-6-6-6-6-6-6-6-6-9--9-9---6-6-6-6-6-6-6-6-6-6-6-4--4-4--7-|
A|-4-4-4-4-4-4-4-4-4-4-4-7--7-7---4-4-4-4-4-4-4-4-4-4-4-4--4-4--7-|
E|-4-4-4-4-4-4-4-4-4-4-4----------4-4-4-4-4-4-4-4-4-4-4-2--2-2--5-|

e|---------------------------------------------------------------|
B|---------------------------------------------------------------|
G|-1-1-1-1-1-1-1-1-1-1-1-6--8-8---1-1-1-1-1-1-1-1-1-1-1-6--8-8---|
D|-2-2-2-2-2-2-2-2-2-2-2-7--9-9---2-2-2-2-2-2-2-2-2-2-2-7--9-9---|
A|-2-2-2-2-2-2-2-2-2-2-2-x--x-x---2-2-2-2-2-2-2-2-2-2-2-x--x-x---|
E|-0-0-0-0-0-0-0-0-0-0-0-5--7-7---0-0-0-0-0-0-0-0-0-0-0-5--7-7---|

e|----------------------------------------------------------------|
B|----------------------------------------------------------------|
G|-----------------------9--9-9-----------------------------------|
D|-6-6-6-6-6-6-6-6-6-6-6-9--9-9---6-6-6-6-6-6-6-6-6-6-6-4--4-4--7-|
A|-4-4-4-4-4-4-4-4-4-4-4-7--7-7---4-4-4-4-4-4-4-4-4-4-4-4--4-4--7-|
E|-4-4-4-4-4-4-4-4-4-4-4----------4-4-4-4-4-4-4-4-4-4-4-2--2-2--5-|


[Chorus]
e|-----------------------------------------------------------------|
B|-----------------------------------------------------------------|
G|-1-1-1-1-1-1-1-1-------------------------------------------------|
D|-2-2-2-2-2-2-2-2-7-7-7-7-7-7-7-7-6-6-6-6-6-6-6-6-7-7-7-7-7-7-7-7-|
A|-2-2-2-2-2-2-2-2-7-7-7-7-7-7-7-7-4-4-4-4-4-4-4-4-7-7-7-7-7-7-7-7-|
E|-0-0-0-0-0-0-0-0-5-5-5-5-5-5-5-5-4-4-4-4-4-4-4-4-5-5-5-5-5-5-5-5-|

e|-----------------------------------------------------------------|
B|-----------------------------------------------------------------|
G|-1-1-1-1-1-1-1-1-------------------------------------------------|
D|-2-2-2-2-2-2-2-2-7-7-7-7-7-7-7-7-6-6-6-6-6-6-6-6-7-7-7-7-7-7-7-7-|
A|-2-2-2-2-2-2-2-2-7-7-7-7-7-7-7-7-4-4-4-4-4-4-4-4-7-7-7-7-7-7-7-7-|
E|-0-0-0-0-0-0-0-0-5-5-5-5-5-5-5-5-4-4-4-4-4-4-4-4-5-5-5-5-5-5-5-5-|

e|-----------------------------------------------------------------|
B|-----------------------------------------------------------------|
G|-9-9-9-9-9-9-9-9-------------------------------------------------|
D|-9-9-9-9-9-9-9-9-4-4-4-4-4-4-4-4-6-6-6-6-6-6-6-6-7-7-7-7-7-7-7-7-|
A|-7-7-7-7-7-7-7-7-4-4-4-4-4-4-4-4-4-4-4-4-4-4-4-4-7-7-7-7-7-7-7-7-|
E|-----------------2-2-2-2-2-2-2-2-4-4-4-4-4-4-4-4-5-5-5-5-5-5-5-5-|

e|-----------------------------------------------------------------|
B|-----------------------------------------------------------------|
G|-9-9-9-9-9-9-9-9-------------------------------------------------|
D|-9-9-9-9-9-9-9-9-4-4-4-4-4-4-4-4-6-6-6-6-6-6-6-6-7-7-7-7-7-7-7-7-|
A|-7-7-7-7-7-7-7-7-4-4-4-4-4-4-4-4-4-4-4-4-4-4-4-4-7-7-7-7-7-7-7-7-|
E|-----------------2-2-2-2-2-2-2-2-4-4-4-4-4-4-4-4-5-5-5-5-5-5-5-5-|


[Verse 2]
e|---------------------------------------------------------------|
B|---------------------------------------------------------------|
G|-1-1-1-1-1-1-1-1-1-1-1-6--8-8---1-1-1-1-1-1-1-1-1-1-1-6--8-8---|
D|-2-2-2-2-2-2-2-2-2-2-2-7--9-9---2-2-2-2-2-2-2-2-2-2-2-7--9-9---|
A|-2-2-2-2-2-2-2-2-2-2-2-x--x-x---2-2-2-2-2-2-2-2-2-2-2-x--x-x---|
E|-0-0-0-0-0-0-0-0-0-0-0-5--7-7---0-0-0-0-0-0-0-0-0-0-0-5--7-7---|

e|--------------------------------------------------------------|
B|--------------------------------------------------------------|
G|-----------------------9--9-9---------------------------------|
D|-6-6-6-6-6-6-6-6-6-6-6-9--9-9---6-6-6-6-6-6-6-6-6-6-6-9--9-9--|
A|-4-4-4-4-4-4-4-4-4-4-4-7--7-7---4-4-4-4-4-4-4-4-4-4-4-9--9-9--|
E|-4-4-4-4-4-4-4-4-4-4-4----------4-4-4-4-4-4-4-4-4-4-4-7--7-7--|

e|---------------------------------------------------------------|
B|---------------------------------------------------------------|
G|-1-1-1-1-1-1-1-1-1-1-1-6--8-8---1-1-1-1-1-1-1-1-1-1-1-6--8-8---|
D|-2-2-2-2-2-2-2-2-2-2-2-7--9-9---2-2-2-2-2-2-2-2-2-2-2-7--9-9---|
A|-2-2-2-2-2-2-2-2-2-2-2-x--x-x---2-2-2-2-2-2-2-2-2-2-2-x--x-x---|
E|-0-0-0-0-0-0-0-0-0-0-0-5--7-7---0-0-0-0-0-0-0-0-0-0-0-5--7-7---|

e|--------------------------------------------------------------------------|
B|--------------------------------------------------------------------------|
G|-----------------------9--9-9---------------------------------------------|
D|-6-6-6-6-6-6-6-6-6-6-6-9--9-9---6-6-6-6-6-6-6-6-6-6-6-4--4-4--7-7--7-7--9-|
A|-4-4-4-4-4-4-4-4-4-4-4-7--7-7---4-4-4-4-4-4-4-4-4-4-4-4--4-4--7-7--7-7--9-|
E|-4-4-4-4-4-4-4-4-4-4-4----------4-4-4-4-4-4-4-4-4-4-4-2--2-2--5-5--5-5--7-|


[Chorus]
e|-----------------------------------------------------------------|
B|-----------------------------------------------------------------|
G|-1-1-1-1-1-1-1-1-------------------------------------------------|
D|-2-2-2-2-2-2-2-2-7-7-7-7-7-7-7-7-6-6-6-6-6-6-6-6-7-7-7-7-7-7-7-7-|
A|-2-2-2-2-2-2-2-2-7-7-7-7-7-7-7-7-4-4-4-4-4-4-4-4-7-7-7-7-7-7-7-7-|
E|-0-0-0-0-0-0-0-0-5-5-5-5-5-5-5-5-4-4-4-4-4-4-4-4-5-5-5-5-5-5-5-5-|

e|-----------------------------------------------------------------|
B|-----------------------------------------------------------------|
G|-1-1-1-1-1-1-1-1-------------------------------------------------|
D|-2-2-2-2-2-2-2-2-7-7-7-7-7-7-7-7-6-6-6-6-6-6-6-6-7-7-7-7-7-7-7-7-|
A|-2-2-2-2-2-2-2-2-7-7-7-7-7-7-7-7-4-4-4-4-4-4-4-4-7-7-7-7-7-7-7-7-|
E|-0-0-0-0-0-0-0-0-5-5-5-5-5-5-5-5-4-4-4-4-4-4-4-4-5-5-5-5-5-5-5-5-|

e|-----------------------------------------------------------------|
B|-----------------------------------------------------------------|
G|-9-9-9-9-9-9-9-9-------------------------------------------------|
D|-9-9-9-9-9-9-9-9-4-4-4-4-4-4-4-4-6-6-6-6-6-6-6-6-7-7-7-7-7-7-7-7-|
A|-7-7-7-7-7-7-7-7-4-4-4-4-4-4-4-4-4-4-4-4-4-4-4-4-7-7-7-7-7-7-7-7-|
E|-----------------2-2-2-2-2-2-2-2-4-4-4-4-4-4-4-4-5-5-5-5-5-5-5-5-|

e|-----------------------------------------------------------------|
B|-----------------------------------------------------------------|
G|-9-9-9-9-9-9-9-9-------------------------------------------------|
D|-9-9-9-9-9-9-9-9-4-4-4-4-4-4-4-4-6-6-6-6-6-6-6-6-7-7-7-7-7-7-7-7-|
A|-7-7-7-7-7-7-7-7-4-4-4-4-4-4-4-4-4-4-4-4-4-4-4-4-7-7-7-7-7-7-7-7-|
E|-----------------2-2-2-2-2-2-2-2-4-4-4-4-4-4-4-4-5-5-5-5-5-5-5-5-|


[Bridge]
e|-----------------------------------------------------------------|
B|-----------------------------------------------------------------|
G|-6-6-6-6-6-6-6-6-8-8-8-8-8-8-8-8-1-1-1-1-1-1-1-1-----------------|
D|-6-6-6-6-6-6-6-6-8-8-8-8-8-8-8-8-2-2-2-2-2-2-2-2-7-7-7-7-7-7-7-7-|
A|-4-4-4-4-4-4-4-4-6-6-6-6-6-6-6-6-2-2-2-2-2-2-2-2-7-7-7-7-7-7-7-7-|
E|---------------------------------0-0-0-0-0-0-0-0-5-5-5-5-5-5-5-5-|
   * * * * * * * * * * * * * * * * * * * * * * * * * * * * * * * *

e|-----------------------------------------------------------------|
B|-----------------------------------------------------------------|
G|-6-6-6-6-6-6-6-6-8-8-8-8-8-8-8-8-1-1-1-1-1-1-1-1-----------------|
D|-6-6-6-6-6-6-6-6-8-8-8-8-8-8-8-8-2-2-2-2-2-2-2-2-7-7-7-7-7-7-7-7-|
A|-4-4-4-4-4-4-4-4-6-6-6-6-6-6-6-6-2-2-2-2-2-2-2-2-7-7-7-7-7-7-7-7-|
E|---------------------------------0-0-0-0-0-0-0-0-5-5-5-5-5-5-5-5-|
   * * * * * * * * * * * * * * * * * * * * * * * *

e|-----------------------------------------------------------------|
B|-----------------------------------------------------------------|
G|-6-6-6-6-6-6-6-6-8-8-8-8-8-8-8-8-1-1-1-1-1-1-1-1-----------------|
D|-6-6-6-6-6-6-6-6-8-8-8-8-8-8-8-8-2-2-2-2-2-2-2-2-7-7-7-7-7-7-7-7-|
A|-4-4-4-4-4-4-4-4-6-6-6-6-6-6-6-6-2-2-2-2-2-2-2-2-7-7-7-7-7-7-7-7-|
E|---------------------------------0-0-0-0-0-0-0-0-5-5-5-5-5-5-5-5-|

e|---------------------------------------|
B|---------------------------------------|
G|-6-6-6-6-6-6-6-6-8-8-8-8-8-8-8-8-------|
D|-6-6-6-6-6-6-6-6-8-8-8-8-8-8-8-8---7-7-|
A|-4-4-4-4-4-4-4-4-6-6-6-6-6-6-6-6---7-7-|
E|-----------------------------------5-5-|


[Chorus]
e|-----------------------------------------------------------------|
B|-----------------------------------------------------------------|
G|-1-1-1-1-1-1-1-1-------------------------------------------------|
D|-2-2-2-2-2-2-2-2-7-7-7-7-7-7-7-7-6-6-6-6-6-6-6-6-7-7-7-7-7-7-7-7-|
A|-2-2-2-2-2-2-2-2-7-7-7-7-7-7-7-7-4-4-4-4-4-4-4-4-7-7-7-7-7-7-7-7-|
E|-0-0-0-0-0-0-0-0-5-5-5-5-5-5-5-5-4-4-4-4-4-4-4-4-5-5-5-5-5-5-5-5-|

e|-----------------------------------------------------------------|
B|-----------------------------------------------------------------|
G|-1-1-1-1-1-1-1-1-------------------------------------------------|
D|-2-2-2-2-2-2-2-2-7-7-7-7-7-7-7-7-6-6-6-6-6-6-6-6-7-7-7-7-7-7-7-7-|
A|-2-2-2-2-2-2-2-2-7-7-7-7-7-7-7-7-4-4-4-4-4-4-4-4-7-7-7-7-7-7-7-7-|
E|-0-0-0-0-0-0-0-0-5-5-5-5-5-5-5-5-4-4-4-4-4-4-4-4-5-5-5-5-5-5-5-5-|

e|-----------------------------------------------------------------|
B|-----------------------------------------------------------------|
G|-9-9-9-9-9-9-9-9-------------------------------------------------|
D|-9-9-9-9-9-9-9-9-4-4-4-4-4-4-4-4-6-6-6-6-6-6-6-6-7-7-7-7-7-7-7-7-|
A|-7-7-7-7-7-7-7-7-4-4-4-4-4-4-4-4-4-4-4-4-4-4-4-4-7-7-7-7-7-7-7-7-|
E|-----------------2-2-2-2-2-2-2-2-4-4-4-4-4-4-4-4-5-5-5-5-5-5-5-5-|

e|-----------------------------------------------------------------|
B|-----------------------------------------------------------------|
G|-9-9-9-9-9-9-9-9-------------------------------------------------|
D|-9-9-9-9-9-9-9-9-4-4-4-4-4-4-4-4-6-6-6-6-6-6-6-6-7-7-7-7-7-7-7-7-|
A|-7-7-7-7-7-7-7-7-4-4-4-4-4-4-4-4-4-4-4-4-4-4-4-4-7-7-7-7-7-7-7-7-|
E|-----------------2-2-2-2-2-2-2-2-4-4-4-4-4-4-4-4-5-5-5-5-5-5-5-5-|


[Outro]

e|-----------------------------|      
B|-12--9---------12--9------9--|      
G|--------11--9---------11-----| x6
D|-----------------------------| On seventh time, play only first four notes
A|-----------------------------| to end the song
E|-----------------------------|



| /  slide up
| \  slide down
| h  hammer-on
| p  pull-off
| ~  vibrato
| +  harmonic
| x  Mute note
| *  Palm Mute
===============================================================================
Tap to rate this tab
 
# A B C D E F G H I J K L M N O P Q R S T U V W X Y Z