Guitaretab - guitar tabs
Song name
# A B C D E F G H I J K L M N O P Q R S T U V W X Y Z

Paramore - Looking Up tab

Tuning: Standard(eADGBE)

Guitar1
Intro: This Part 3x
|--------------------------------|-----------------------------|
|-------7------------------------|-------------7---7---7---7---|
|------------9----9----9----9----|-6---8---9-------------------|
|-6h9-9--/11---11---11---11---11-|---7---7---7---7---7---7---7-|
|--------------------------------|-----------------------------|
|--------------------------------|-----------------------------|

Pre-Verse:
|---------------------------------------------------|
|---------------------------------------------------|
|-13/16-16-16-x-13-13-13-13-13-13-13-13-13-13-13-13-|
|--x--x--x--x-x--x--x--x--x--x--x--x--x--x--x--x--x-|x2
|-11/14-14-14-x-11-11-11-11-11-11-11-11-11-11-11-11-|
|---------------------------------------------------|

|---------------------------------------------------|
|---------------------------------------------------|
|-13/20-20-20-x-13-13-13-13-13-13-13-13-13-13-13-13-|
|--x--x--x--x-x--x--x--x--x--x--x--x--x--x--x--x--x-|
|-11/18-18-18-x-11-11-11-11-11-11-11-11-11-11-11-11-|
|---------------------------------------------------|

|---------------------|
|---------------------|
|-x-9-x-11-x-13-x-16~-|
|-x-x-x-x--x--x-x--x--|
|-x-7-x-9--x-11-x-14~-|
|---------------------|

Verse2: Play this two times.
|-----12--14~--12--14~--12--12--11--11---|
|-(12)--12---12--12---12--12--12--12--12-|
|----------------------------------------|
|----------------------------------------|
|----------------------------------------|
|----------------------------------------|

Pre-Chorus1   Pre-Chorus2
|-------------|----------------|
|-------------|-------44444444-|
|-------------|----------------|
|-2-2-222-2-2-|-2-2-2----------|
|-2-2-222-2-2-|-2-2-2----------|
|-0-0-000-0-0-|-0-0-0----------|
[ Tab from: http://www.guitaretab.com/p/paramore/202208.html ]
Chorus1: This riff can fill the chorus for guitar2. If you don't feel like it, you could 
the chords guitar 1 uses.
|-------------------------------------------------|
|-17-17-17-17-------------------------------------|
|--x--x--x--x-13-13-13-13/18-18-18-18-16-16-16-16-|
|-14-14-14-14--x--x--x--x--x--x--x--x--x--x--x--x-|
|-------------11-11-11-11/16-16-16-16-14-14-14-14-|
|-------------------------------------------------|

|-------------------------------------------------|
|-17-17-17-17-------------------------------------|
|--x--x--x--x-13-13-13-13-16-16-16-16-16-16-16-16-|
|-14-14-14-14--x--x--x--x--x--x--x--x--x--x--x--x-|
|-------------11-11-11-11-14-14-14-14-14-14-14-14-|
|-------------------------------------------------|

Chorus2: This part 2x 2nd Chorus only
|-----------------------------|------------------|
|-----------------------------|------------------|
|-2222-2-2222-2-6666-6-4444-4-|-22-222-222-222-2-|
|-2222-2-2222-2-6666-6-4444-4-|-22-222-222-222-2-|
|-0000-0-0000-0-4444-4-2222-2-|-00-000-000-000-0-|
|-----------------------------|------------------|

Doesn't play in the first part of the Bridge
Bridge2:
|---------------------------------------|
|---------------------------------------|
|-9-9-xx-x-9-9-xx-x-13-13-xx-x-1111xx-x-|
|-9-9-xx-x-6-6-xx-x-11-11-xx-x-7-7-xx-x-|
|-7-7-xx-x-7-7-xx-x-11-11-xx-x-7-7-xx-x-|
|---------------------------------------|

Bridge3:
|-------------------------------------------|
|-------------------------------------------|
|-9-9-9-9-9-9-9-9-9/16-16-16-16-16-16-16-16-|
|-x-x-x-x-x-x-x-x-x--x--x--x--x--x--x--x--x-|
|-7-7-7-7-7-7-7-7-7/14-14-14-14-14-14-14-14-|
|-------------------------------------------|

Outro:
|----|
|----|
|----|
|-2~-|
|-2~-|
|-0~-|

Guitar2
Intro:
E C#m E C#m E C#m A B

Pre-Verse:
Same as intro

Verse1&2(Palm Muted):
E C#m B x4

Pre-Chorus
E

Chorus1:
A E C#m B A E B

Chorus2:
A C#m B A C#m B

Bridge1:
E G#m E G#m(hit only the first string, alternate picking)

Bridge2:
E G#m B A E G#m B

Bridge3:
A E B

Outro:
E~

Sequence:

Intro
Preverse
Verse1
Verse2
Pre-Chorus1
Chorus1
Chorus2
Pre-Verse
Verse1
Verse2
Pre-Chorus2
Chorus1
Chorus2
Bridge1
Bridge2
Bridge3
Chorus1
Chorus2
Chorus2
Outro
Bridge2
Bridge2
Outro

Symbol:
h-hammer
/-slide
x-mute/dead note
~-let ring
Related for Looking Up tab
Looking Up chords by Paramore