Song name
# A B C D E F G H I J K L M N O P Q R S T U V W X Y Z

Paramore - Playing God tab

Title: Playing God
Artist: Paramore
Album: Brand New Eyes
Transcribed and revised by: Angelo de Guzman  Saint Louis University, Baguio City 
 email, friendster and my facebook =D) Corrections and suggestions are always appreciated :D


Tuning : Standard (e b g d a E)
Legend: v = (strumming going up)


Intro

            2x                     2x
e|----------------------|------------------------|
B|----------------------|---7----7----7----7-----|
G|----8----8----8----89-|------------------------|
D|---9-9--9-9--9-9--9---|--9-9--9-9--9-9--9-9----|
A|--7----7----7----7----|-7----7----7----7-------|
E|----------------------|------------------------|


Verse 1

             2x                    2x
e|----------------------|------------------------|
B|----------------------|---7----7----7----7-----|
G|----8----8----8----89-|------------------------|
D|---9-9--9-9--9-9--9---|--9-9--9-9--9-9--9-9----| - 2x
A|--7----7----7----7----|-7----7----7----7-------|
E|----------------------|------------------------|

I can't make my own decisions
or make any with precision.
Well maybe you should tie me up,
so I don't go where you don't want me.
You say that I've been changin'
that I'm not just simply agin'.
yeah How can that be logical?
Just keep on cramming ideas down my throat.


Pre-chorus

e-----------------------|
B-----------------------|
G-----------------------|
D--7777777-99999--------|
A--7777777-99999--------|
E--5555555-77777--------|

woo oh oohh oh


Chorus:


e|-----------------------------------|-----------------------------|
B|-----------------------------------|-----------------------------|
G|-9999v9----6666v6----2222v2-4444v4-|-----------------------------|
D|-9999v9-2x-6666v6-2x-2222v2-4444v4-|-6666v6-7777v7-7777777-99999-|
A|-7777v7----4444v4----0000v0-2222v2-|-6666v6-7777v7-7777777-99999-|
E|-----------------------------------|-4444v4-5555v5-5555555-77777-|

You don't have to believe me
but the way I, way I see it
next time you point a finger
I might have to bend it back
or brake it, brake it off
next time you point a finger
I'll point you to the mirror.


Intro


e|----------------------|------------------------|
B|----------------------|---7----7----7----7-----|
G|----8----8----8----89-|------------------------|
D|---9-9--9-9--9-9--9---|--9-9--9-9--9-9--9-9----|
A|--7----7----7----7----|-7----7----7----7-------|
E|----------------------|------------------------|


Verse 2

             2x                    2x
e|----------------------|------------------------|
B|----------------------|---7----7----7----7-----|
G|----8----8----8----89-|------------------------|
D|---9-9--9-9--9-9--9---|--9-9--9-9--9-9--9-9----| - 2x
A|--7----7----7----7----|-7----7----7----7-------|
E|----------------------|------------------------|


If God's the game that you're playing
Well we must get more acquainted
because it has to be so lonely
to be the only one who's holy.
It's just my humble opinion
but it's one that I believe in.
You don't deserve a point of view
if the only thing you see, is you.


Pre-chorus

e------------------------|
B------------------------|
G------------------------|
D--7777777-99999---------|
A--7777777-99999---------|
E--5555555-77777---------|

woo oh oohh oh

Chorus:


e|-----------------------------------|-----------------------------|
B|-----------------------------------|-----------------------------|
G|-9999v9----6666v6----2222v2-4444v4-|-----------------------------|
D|-9999v9-2x-6666v6-2x-2222v2-4444v4-|-6666v6-7777v7-7777777-99999-|
A|-7777v7----4444v4----0000v0-2222v2-|-6666v6-7777v7-7777777-99999-|
E|-----------------------------------|-4444v4-5555v5-5555555-77777-|

You don't have to believe me
but the way I, way I see it
next time you point a finger
I might have to bend it back
or brake it, brake it off
next time you point a finger
I'll point you to the mirror.


Bridge:

e|--------------------------------------|
B|--------------------------------------|
G|--2222222--4444444--6666666-----------|
D|--2222222--4444444--6666666--6666666--| - 2x
A|--0000000--2222222--4444444--6666666--|
E|-----------------------------4444444--|


e|--------------------------------------|
B|--------------------------------------|
G|--2222222--4444444--6666666-----------|
D|--2222222--4444444--6666666--6666666--|
A|--0000000--2222222--4444444--6666666--|
E|-----------------------------4444444--|

This is the last second chance
(I'll point you to the mirror)
I'm half as good as it gets
(I'll point you to the mirror)

e|--------------------------------------|
B|--------------------------------------|
G|--2222222--4444444--6666666--8888888--|
D|--2222222--4444444--6666666--8888888--|
A|--0000000--2222222--4444444--6666666--|
E|--------------------------------------|

I'm on both sides of the fence
(I'll point you to the mirror)
Without a hint of regret,
I'll hold you to it.

e|-----|
B|-----|
G|--9--|
D|--9--| - Let it ring
A|--7--|
E|-----|


Final Chorus:

I know you don't believe me

e|-------------------------|----------------|---------------|
B|-------------------------|----------------|---------------|
G|-6666v6----2222v2-4444v4-|--------66-4444-|-2222v2-4444v4-|
D|-6666v6-2x-2222v2-4444v4-|-6666v6-66-4444-|-2222v2-4444v4-|
A|-4444v4----0000v0-2222v2-|-6666v6-44-2222-|-0000v0-2222v2-|
E|-------------------------|-4444v4---------|---------------|

but the way I, way I see it
next time you point a finger
I might have to bend it back
or brake it, brake it off
next time you point a finger
I'll point you to the mirror.

e|-----------------------------------|-----------------------------|
B|-----------------------------------|-----------------------------|
G|-9999v9----6666v6----2222v2-4444v4-|-----------------------------|
D|-9999v9-2x-6666v6-2x-2222v2-4444v4-|-6666v6-7777v7-7777777-99999-|
A|-7777v7----4444v4----0000v0-2222v2-|-6666v6-7777v7-7777777-99999-|
E|-----------------------------------|-4444v4-5555v5-5555555-77777-|

I know you won't believe me
but the way I, way I see it
next time you point a finger
I might have to bend it back
or brake it, brake it off
next time you point a finger
I'll point you to the mirror.


This is just a revision of the previous tab made by Sir Reggae V. Aguilar of San Pedro 
Again, for further comments or corrections . . . .  you can constantly correct me:D tsk 
. . .
Tap to rate this tab
# A B C D E F G H I J K L M N O P Q R S T U V W X Y Z