Song name
# A B C D E F G H I J K L M N O P Q R S T U V W X Y Z

Paramore - All I Wanted tab

This is only Josh's part because I'm still trying to find out what Taylor plays so if 
have any ideas of what he's playing put them in the comments. :D This is my first tab so 
me know what you think. It was done all by ear.

-- Sade

All I Wanted
4/4
Standard Tuning for the album/Half-Step down for live performance
brand new eyes
- Paramore 2009

Intro:
e|-------------------------------------------|
B|-------------------------------------------|
G|------------11-9---------------------------|
D|-12-12-11-------12---12-12-11--------------|
A|----------9------------------9-7h9-7h9-7h9-|
E|-------------------------------------------|

Verse:0:26
e|------------------------------------------|
B|------------------------------------------|
G|------------11-9--------------------------|
D|-12-12-11-------12---12-12-11-------------|
A|---------9-------------------9-7h9-7h9----|
E|------------------------------------------|

pre-chorus & chorus:0:40-1:07
e|--------------------|
B|--------------------|
G|--------------------|  repeat until the end of the chorus
D|----------------7---|
A|-7h9-7h9-7h9-7h9-7--|
E|--------------------|

Verse:1:07-1:32
e|------------------------------------------|
B|------------------------------------------|
G|------------11-9--------------------------|
D|-12-12-11-------12---12-12-11-------------|
A|---------9-------------------9-7h9-7h9----|
E|------------------------------------------|

Pre-Chorus & Chorus:1:32-1:58
e|--------------------|
B|--------------------|
G|--------------------|  repeat until the end of the chorus
D|----------------7---|
A|-7h9-7h9-7h9-7h9-7--|
E|--------------------|

Verse:2:00
e|------------------------------------|
B|------------------------------------|
G|-------11-9~----11------11-9v-11v---|
D|-12-11------------12-11-------------|
A|------------------------------------|
E|------------------------------------|

Verse pt.2 (you want to play the octaves for four beats then move to the next octave) so 
next octave etc.
e|---------------|
B|---------------|
G|-7-6-11-9-11---|
D|-x-x-x-x-x-----|      repeat x2
A|-5-4-9-7-9-----|
E|---------------|
PM...............

Verse pt.3
e|-----------------------------------------------|
B|-15-14----15-17-----15-14----15-17-------------|
G|----------------14-----------------14-14141414-|
D|-----------------------------------------------|
A|-----------------------------------------------|
E|-----------------------------------------------|

Chorus:2:40
e|--------------------|
B|--------------------|
G|--------------------|  repeat till 3:13 then end w/ this
D|----------------7---|
A|-7h9-7h9-7h9-7h9-7--|
E|--------------------|

e|-------|
B|-------|
G|-7~----|
D|-x~----
A|-5~----|
E|-------|
Tap to rate this tab
# A B C D E F G H I J K L M N O P Q R S T U V W X Y Z