Song name
# A B C D E F G H I J K L M N O P Q R S T U V W X Y Z

Paramore - Careful tab

Artist: Paramore
Song: Careful
Album: Brand New Eyes
Standard Tuning {E A D G B e}

INTRO
|------------------------10-11-10-13-----------------------------------|
|---10-11-10-11-10-------------------11---10-11-10-11-10-------13-11-10|
|-o----------------12-10---------------------------------12-10---------|> play
|-o--------------------------------------------------------------------|> 2x
|----------------------------------------------------------------------|
|----------------------------------------------------------------------|

VERSE
|-------13-------13-------------13-------13----13-------10-|
|----11-------11-------11----11-------11-------------11----|
|-12-------12-------12----12-------12-------12----12-------|
|----------------------------------------------------------|
|----------------------------------------------------------|
|----------------------------------------------------------|

VERSE
continued
|-1-------13-------13-------13-------------13-------13----|
|-1----11-------11-------11-------11----11-------11-------|
|-1-12-------12-------12-------12----12-------12-------12-|
|---------------------------------------------------------|
|---------------------------------------------------------|
|---------------------------------------------------------|

VERSE 
continued
|------------------------------------------------------------------|
|------------------------------------------------------------------|
|------------------------------------------------------------------|
|-12----(play)-12----(play)-10----(play)-12----(play)-12----(play)-|
|----13-(4x  )----12-(4x  )----12-(4x  )----13-(8x  )----12-(4x  )-|
|------------------------------------------------------------------|

VERSE 
continued
|-------------------|
|-------------------|
|-------------------|
|-10----(play)-8----|
|----12-(4x  )---12-|
|-------------------|

CHORUS SECTION 1
|--------------------------------------------|
|--------------------------------------------|
|-o-12(3x)-7(3x)-10(8x)-12(3x)-7(3x)-5(10x)-o|> play 
|-o-----------------------------------------o|> 2x
|---10-----5------8-----10-----5-----3-------|
|--------------------------------------------|

CHORUS SECTION 2
|--------10-------------8---------------10-------------8-----|
|------8---------8-11-8---8-11-8------8---------8-11-8---10^-|
|-8-10------8-10-----------------8-10------8-10--------------|
|------------------------------------------------------------|
|------------------------------------------------------------|
|------------------------------------------------------------|

CHORUS SECTION 2
continued
|----------------------10-11-10-13-------------------------------------|
|-10-11-10-11-10-------------------11-10-11-10-11-10-------13-11-10-11-|
|----------------12-10-------------------------------12-10-------------|
|----------------------------------------------------------------------|
|----------------------------------------------------------------------|
|----------------------------------------------------------------------|

repeat VERSE

VERSE ENDING
|-------------------------------------------------------|
|-------------------------------------------------------|
|-15-15-15----------------------------------------------|
|-12-12-12--12----(play)-12----(play)-10----(play)-8----|
|-13-13-13-----13-(4x  )----12-(4x  )----12-(4x  )---10-|
|-------------------------------------------------------|

repeat CHORUS

SOLO/BRIDGE SECTION 1
|-------------10-13-18-17-------------10-13-18-17-|
|-10-11-------------------10-11-------------------|
|-------12-10-------------------12-10-------------|
|-------------------------------------------------|
|-------------------------------------------------|
|-------------------------------------------------|

SOLO/BRIDGE SECTION 2
|-----------------------------------|         |-------|
|-----------------------------------|         |-------|
|-o-12-12-15-15-15-7-7-7-14-5-5-5-o-|> play   |-12-12-|
|-o-------------------------------o-|> 2x     |-------|
|---10-10-13-13-13-5-5-5-12-3-3-3---|         |-10-10-|
|-----------------------------------|         |-------|

SOLO/BRIDGE SECTION 3
|---------------------------------------------------|
|---------------------------------------------------|
|-o-----------------------------------------------o-|> play
|-o-12----12----12-13-15-15-----------------------o-|> 3x
|------13----13-------------13-13-13-12-12-12-12-12-|
|---------------------------------------------------|

SOLO/BRIDGE SECTION 4
|----------------------------------------------------------------|
|----------------------------------------------------------------|
|----------------------------------14-14-14-14-12-------12-------|
|-12----12----12-13-15-15-------------------------12/15----12\10-|
|----13----13-------------13-13-13-12-12-12-12-------------------|
|----------------------------------------------------------------|

repeat CHORUS SECTION 1 (4x)
       CHORUS SECTION 2

ENDING
|----------------------10-11-10-13------------------------------------|
|-10-11-10-11-10-------------------11-10-11-10-11-10-------13-11-10\3-|
|----------------12-10-------------------------------12-10------------|
|---------------------------------------------------------------------|
|---------------------------------------------------------------------|
|---------------------------------------------------------------------|

ORDER:
INTRO
VERSE
CHORUS
VERSE
CHORUS
SOLO/BRIDGE
CHORUS SECTION 1 (4x)
ENDING

THERE YOU GO! HOPE YOU ENJOY, GREAT SONG by PARAMORE. PEACE
Tap to rate this tab
 
# A B C D E F G H I J K L M N O P Q R S T U V W X Y Z