Song name
# A B C D E F G H I J K L M N O P Q R S T U V W X Y Z

Paramore - All I Wanted tab

OK!!! so this is my first tab and I see a previously submitted one with 5
Stars but some parts sound effy to me so here's my opinion on how to play
the song. I'm still a very beginning guitar player so I wouldn't be
surprised if I'm wrong from the get-go :) but please comment and lemme know
if I'm tone deaf! haha

Intro

Guitar I
|-------------------------------------------------------------------|
|-------------------------------------------------------------------|
|---------0----------------0----------------0---------------0-------|X2
|-----3-----3---3------3-----3----3-----3-----3---3-----3-----3---3-|
|-----------------------------------3-3---3-----3---5-5---5-----5---|
|-1-1---1-----1---5--5---5------5-----------------------------------|


Guitar II
|------------------------------------------------------------------------|
|------------------------------------------------------------------------|
|-8------8---7---0------12----10---8------8---7---0----------------------|
|------------------------------------------------------------------------|
|----------------------------------------------------------8/10---8/10---|
|------------------------------------------------------------------------|


So those two parts are played throughout the intro and and into the first
verse. This is also how Verse II goes. There's a section where the second
guitar part isn't played but if you hear the song it's easy enough to figure
 out where.

@ 00:40:

|--------------------------------------------|
|--------------------------------------------|
|--------------------------------------------|
|--------------------------------------------| X4
|--8/10---8/10---8/10---8---13----10----8----|
|--------------------------------------------|
If you have a friend playing with you I suggest that friend play Part I from
the intro part to make the song sound cooler but that's just me :-)In any
case I think that part's being played anyway, but it's kinda hard to tell
because the echo from this part kind of muffles everything else...

From that it goes to the distorted part, which is basically


Guitar I
|-----------------------------------------------|
|-----------------------------------------------|
|-------------------------5--------7------------|X2
|-1--------------5--------5--------7------------|
|-1--------------5--------3--------5------------|
|-1--------------5------------------------------|

Guitar II
|---------------------------------------------|
|---------------------------------------------|
|-10/12--10/12---10/12---10----15---12---10---|
|---------------------------------------------|X4
|--8/10---8/10----8/10----8----13---10---8----|
|---------------------------------------------|
Believe it or not this also turns out to be the way you play the chorus. So
now you've got just about the whole song done for except for Verse 3, which
is basically a Palm-muted version of the chorus, for both guitars. If you're
wondering what the higher notes are towards the end of the third verses,
just play the 11th, 10th, and 13th frets on your high string (or the
"skinny" string as I like to call it because for some reason it's always
THAT confusing on which string is the top string).




Oh yeah, the solo....

|---------------11--10----------------------------11----10--------|
|-----------------------------------------------------------------|
|-8-----7-----------------10----12-----8-----7---------------10---|
|-----------------------------------------------------------------|
|-----------------------------------------------------------------|
|-----------------------------------------------------------------|

On the last note, you can either hammer on to the 12th fret or bend the 10th
fret, whatever's more your style...

Oh and that one note right after Hayley's vocal solo & right before the
chorus?

|-----
|-----
|-----
|--0--
|--0--
|--0--

And that's it. Any comments or corrections please lemme know otherwise, ENJOY!
Tap to rate this tab
# A B C D E F G H I J K L M N O P Q R S T U V W X Y Z