Song name
# A B C D E F G H I J K L M N O P Q R S T U V W X Y Z

Paramore - Pressure tab

Paramore
Pressure
All We Know Is Falling
Tuning: DROP D (D A D G B e)

// GUITAR 1 (Josh)
INTRO
|---------------------------------------|
|---------------------------------------|
|--11--11-11s9-9-9--14--14-14s11-11-11--|
|---------------------------------------|
|--9---9--9-s7-7-7--12--12-12s9--9--9---|
|---------------------------------------|

|---------------------------------|
|---------------------------------|
|--11--11-11s9-9-9--6--6-6s7-7-7--|
|---------------------------------|
|--9---9--9-s7-7-7--4--4-4s5-5-5--|
|---------------------------------|

|---------------------------------------|
|---------------------------------------|
|--11--11-11s9-9-9--14--14-14s11-11-11--|
|---------------------------------------|
|--9---9--9-s7-7-7--12--12-12s9--9--9---|
|---------------------------------------|

|---------------------------------|
|---------------------------------|
|--11--11-11s9-9-9--6--6-6s7-7-7--|
|---------------------------------|
|--9---9--9-s7-7-7--4--4-4s5-5-5--|
|---------------------------------|

VERSE 1
|----------------------------------|
|----------------------------------|
|----------------------------------|
|-------9-------5-------0-------4--| x2
|--9-9--9--5-5--5--0-0--0--4-4--4--|
|--9-9--9--5-5--5--0-0--0--4-4--4--|
PM . .     . .     . .     . .

|--5-5-5-5-5-5-5-5-----------|
|--7-7-7-7-5-5-5-5--7-7-7-7--|
|-------------------7-7-6-6--|
|----------------------------| 
|----------------------------|
|----------------------------|

|------5-5-5-5-5-5-5-5-5-------------5-|
|--------7-7-7-7-5-5-5-5--7-7-7-7------|
|--6h7--------------------7-7-7-7-6h7--|
|--------------------------------------| 
|--------------------------------------|
|--------------------------------------|

CHORUS
|----------17----------|-------17----------|----------17-------------------------|
|----15-------15-------|-15-------15----15-|----14-------15-------15----19=b20r--|
|-14----14-------16-14-|----14-------14----|-14----14-------14-16----16----------|
|----------------------|-------------------|-------------------------------------|
|----------------------|-------------------|-------------------------------------|
|----------------------|-------------------|-------------------------------------|

|----------17----------|-------17----------|----------17----------------17-----------|
|----15-------15-------|-15-------15----15-|----14-------15-------15-------15----15--|
|-14----14-------16-14-|----14-------14----|-14----14-------14-16----16-------14-----|
|----------------------|-------------------|-----------------------------------------|
|----------------------|-------------------|-----------------------------------------|
|----------------------|-------------------|-----------------------------------------|

|----------17----------|-------17----------|----------17-------------------------|
|----15-------15-------|-15-------15----15-|----14-------15-------15----19=b20r--|
|-14----14-------16-14-|----14-------14----|-14----14-------14-16----16----------|
|----------------------|-------------------|-------------------------------------|
|----------------------|-------------------|-------------------------------------|
|----------------------|-------------------|-------------------------------------|

|----------17----------|-------17----------|----------17----------------17-----------|
|----15-------15-------|-15-------15----15-|----14-------15-------15-------15----15--|
|-14----14-------16-14-|----14-------14----|-14----14-------14-16----16-------14-----|
|----------------------|-------------------|-----------------------------------------|
|----------------------|-------------------|-----------------------------------------|
|----------------------|-------------------|-----------------------------------------|

VERSE 2
01:05
|----------------------------------|
|----------------------------------|
|----------------------------------|
|-------9-------5-------0-------4--|
|--9-9--9--5-5--5--0-0--0--4-4--4--|
|--9-9--9--5-5--5--0-0--0--4-4--4--|
PM . .     . .     . .     . .

|--5-5-5-5-5-5-5-5-----------|
|--7-7-7-7-5-5-5-5--7-7-7-7--|
|-------------------7-7-6-6--|
|----------------------------| 
|----------------------------|
|----------------------------|

|------5-5-5-5-5-5-5-5-5-------------5-|
|--------7-7-7-7-5-5-5-5--7-7-7-7------|
|--6h7--------------------7-7-7-7-6h7--|
|--------------------------------------| 
|--------------------------------------|
|--------------------------------------|

CHORUS 
|----------17----------|-------17----------|----------17-------------------------|
|----15-------15-------|-15-------15----15-|----14-------15-------15----19=b20r--|
|-14----14-------16-14-|----14-------14----|-14----14-------14-16----16----------|
|----------------------|-------------------|-------------------------------------|
|----------------------|-------------------|-------------------------------------|
|----------------------|-------------------|-------------------------------------|

|----------17----------|-------17----------|----------17----------------17-----------|
|----15-------15-------|-15-------15----15-|----14-------15-------15-------15----15--|
|-14----14-------16-14-|----14-------14----|-14----14-------14-16----16-------14-----|
|----------------------|-------------------|-----------------------------------------|
|----------------------|-------------------|-----------------------------------------|
|----------------------|-------------------|-----------------------------------------|

|----------17----------|-------17----------|----------17-------------------------|
|----15-------15-------|-15-------15----15-|----14-------15-------15----19=b20r--|
|-14----14-------16-14-|----14-------14----|-14----14-------14-16----16----------|
|----------------------|-------------------|-------------------------------------|
|----------------------|-------------------|-------------------------------------|
|----------------------|-------------------|-------------------------------------|

|----------17----------|-------17----------|----------17----------------17-----------|
|----15-------15-------|-15-------15----15-|----14-------15-------15-------15----15--|
|-14----14-------16-14-|----14-------14----|-14----14-------14-16----16-------14-----|
|----------------------|-------------------|-----------------------------------------|
|----------------------|-------------------|-----------------------------------------|
|----------------------|-------------------|-----------------------------------------|

POST-CHORUS
|----------------|----------------|
|----------------|----------------|
|--2--2-2-2-2-2--|--2--2-2-2-2-2--|
|--0--0-0-0-0-0--|--0--0-0-0-0-0--|
|--0--0-0-0-0-0--|--0--0-0-0-0-0--|
|--0--0-0-0-0-0--|--0--0-0-0-0-0--|

|---------------------------------------|
|---------------------------------------|
|--11--11-11s9-9-9--14--14-14s11-11-11--|
|---------------------------------------|
|--9---9--9-s7-7-7--12--12-12s9--9--9---|
|---------------------------------------|

|---------------------------------|
|---------------------------------|
|--11--11-11s9-9-9--6--6-6s7-7-7--|
|---------------------------------|
|--9---9--9-s7-7-7--4--4-4s5-5-5--|
|---------------------------------|

|---------------------------------------|
|---------------------------------------|
|--11--11-11s9-9-9--14--14-14s11-11-11--|
|---------------------------------------|
|--9---9--9-s7-7-7--12--12-12s9--9--9---|
|---------------------------------------|

|---------------------------------|
|---------------------------------|
|--11--11-11s9-9-9--6--6-6s7-7-7--|
|---------------------------------|
|--9---9--9-s7-7-7--4--4-4s5-5-5--|
|---------------------------------|

BRIDGE
|--------9----------|
|----------10---10--|
|----7--------7-----| x17
|--9---9------------| 
|-------------------|
|-------------------|

CHORUS
|----------17----------|-------17----------|----------17----------------17-----------|
|----15-------15-------|-15-------15----15-|----14-------15-------15-------15----15--|
|-14----14-------16-14-|----14-------14----|-14----14-------14-16----16-------14-----|
|----------------------|-------------------|-----------------------------------------|
|----------------------|-------------------|-----------------------------------------|
|----------------------|-------------------|-----------------------------------------|

|----------17----------|-------17----------|----------17-----------------|
|----15-------15-------|-15-------15----15-|----14-------15-------15-----|
|-14----14-------16-14-|----14-------14----|-14----14-------14-16----16--|
|----------------------|-------------------|-----------------------------|
|----------------------|-------------------|-----------------------------|
|----------------------|-------------------|-----------------------------|

|----------17----------|-------17----------|----------17-------------------------|
|----15-------15-------|-15-------15----15-|----14-------15-------15----19=b20r--|
|-14----14-------16-14-|----14-------14----|-14----14-------14-16----16----------|
|----------------------|-------------------|-------------------------------------|
|----------------------|-------------------|-------------------------------------|
|----------------------|-------------------|-------------------------------------|

|----------17----------|-------17----------|----------17---------------------------|
|----15-------15-------|-15-------15----15-|----14-------15-------15----19=b20r-15-|
|-14----14-------16-14-|----14-------14----|-14----14-------14-16----16------------|
|----------------------|-------------------|---------------------------------------|
|----------------------|-------------------|---------------------------------------|
|----------------------|-------------------|---------------------------------------|


__________________________________

// GUITAR 2 (Taylor)
INTRO
|-------------------------------------------------------|
|-------------------------------------------------------|
|--11--11-11-11-11--2--2-2-2-2--7--7-7-7-7--9--9-9-9-9--|
|--9---9--9--9--9---0--0-0-0-0--5--5-5-5-5--7--7-7-7-7--| x2
|--9---9--9--9--9---0--0-0-0-0--5--5-5-5-5--7--7-7-7-7--|
|--9---9--9--9--9---0--0-0-0-0--5--5-5-5-5--7--7-7-7-7--|

VERSE 1
|----------------------------------|
|----------------------------------|
|----------------------------------|
|-------9-------5-------0-------4--| x2
|--9-9--9--5-5--5--0-0--0--4-4--4--|
|--9-9--9--5-5--5--0-0--0--4-4--4--|
PM . .     . .     . .     . .

|-----------------------------------|
|-----------------------------------|
|-----------------------------------|
|--9-9-9-9-5-5-5-5-0-0-0-0-4-4-4-4--|
|--9-9-9-9-5-5-5-5-0-0-0-0-4-4-4-4--|
|--9-9-9-9-5-5-5-5-0-0-0-0-4-4-4-4--|

|------------------------------------------|
|------------------------------------------|
|------------------------------------------|
|--9-9-9-9-5-5-5-5-0-0-0-0-4-4-4-4-4-4-4-4-|
|--9-9-9-9-5-5-5-5-0-0-0-0-4-4-4-4-4-4-4-4-|
|--9-9-9-9-5-5-5-5-0-0-0-0-4-4-4-4-4-4-4-4-|
PM                         . . . . . . . .

CHORUS
(not the exact amount of strums)
|---------------------------------------|
|-----------------7=b8r-----------------|
|---------------------------------------|
|--5-5-0-0-4-4-5---------5-5-0-0-4-4-5--| x2
|--5-5-0-0-4-4-5---------5-5-0-0-4-4-5--|
|--5-5-0-0-4-4-5---------5-5-0-0-4-4-5--|

VERSE 2
|----------------------------------|
|----------------------------------|
|----------------------------------|
|-------9-------5-------0-------4--| x2
|--9-9--9--5-5--5--0-0--0--4-4--4--|
|--9-9--9--5-5--5--0-0--0--4-4--4--|
PM . .     . .     . .     . .

|-----------------------------------|
|-----------------------------------|
|-----------------------------------|
|--9-9-9-9-5-5-5-5-0-0-0-0-4-4-4-4--|
|--9-9-9-9-5-5-5-5-0-0-0-0-4-4-4-4--|
|--9-9-9-9-5-5-5-5-0-0-0-0-4-4-4-4--|

|------------------------------------------|
|------------------------------------------|
|------------------------------------------|
|--9-9-9-9-5-5-5-5-0-0-0-0-4-4-4-4-4-4-4-4-|
|--9-9-9-9-5-5-5-5-0-0-0-0-4-4-4-4-4-4-4-4-|
|--9-9-9-9-5-5-5-5-0-0-0-0-4-4-4-4-4-4-4-4-|
PM                         . . . . . . . .

CHORUS
(not the exact amount of strums)
|---------------------------------------|
|-----------------7=b8r-----------------|
|---------------------------------------|
|--5-5-0-0-4-4-5---------5-5-0-0-4-4-5--| x2
|--5-5-0-0-4-4-5---------5-5-0-0-4-4-5--|
|--5-5-0-0-4-4-5---------5-5-0-0-4-4-5--|

POST-CHORUS
|---------------------|---------------------|
|---------------------|---------------------|
|--11--11-11-11-11-11-|--11--11-11-11-11-11-|
|--9---9--9--9--9--9--|--9---9--9--9--9--9--|
|--9---9--9--9--9--9--|--9---9--9--9--9--9--|
|--9---9--9--9--9--9--|--9---9--9--9--9--9--|

|-------------------------------------------------------|
|-------------------------------------------------------|
|--11--11-11-11-11--2--2-2-2-2--7--7-7-7-7--9--9-9-9-9--|
|--9---9--9--9--9---0--0-0-0-0--5--5-5-5-5--7--7-7-7-7--| x2
|--9---9--9--9--9---0--0-0-0-0--5--5-5-5-5--7--7-7-7-7--|
|--9---9--9--9--9---0--0-0-0-0--5--5-5-5-5--7--7-7-7-7--|

BRIDGE
02:17
|-----------------------------------|
|-----------------------------------|
|-----------------------------------|
|--9-9-9-9-5-5-5-5-0-0-0-0-4-4-4-4--|
|--9-9-9-9-5-5-5-5-0-0-0-0-4-4-4-4--|
|--9-9-9-9-5-5-5-5-0-0-0-0-4-4-4-4--|

|------------------------------------------|
|------------------------------------------|
|------------------------------------------|
|--9-9-9-9-5-5-5-5-0-0-0-0-4-4-4-4-4-4-4-4-|
|--9-9-9-9-5-5-5-5-0-0-0-0-4-4-4-4-4-4-4-4-|
|--9-9-9-9-5-5-5-5-0-0-0-0-4-4-4-4-4-4-4-4-|
PM                         . . . . . . . .

CHORUS
(not the exact amount of strums)
|----------------------------------|
|----------------------------------|
|----------------------------------|
|--5-5-0-0-4-4-5-5--5-5-0-0-4-4-5--| 
|--5-5-0-0-4-4-5-5--5-5-0-0-4-4-5--|
|--5-5-0-0-4-4-5-5--5-5-0-0-4-4-5--|

|------------------------------------------------|
|-----------------7=b8r----------------7=b8r-----|
|------------------------------------------------|
|--5-5-0-0-4-4-5---------5-5-0-0-4-4-5--------0--| 
|--5-5-0-0-4-4-5---------5-5-0-0-4-4-5--------0--|
|--5-5-0-0-4-4-5---------5-5-0-0-4-4-5--------0--|

=============
s - slide
= - hold note
b - bend
r - release bend
PM - palm mute
=============

__________________

// LYRICS
VERSE 1
Tell me where our time went
And if it was time well spent
Just don't let me fall asleep
Feeling empty again
'Cause I fear I might break
And I fear I can't take it
Tonight I'll lie awake
Feeling empty

CHORUS
I can feel the pressure
It's getting closer now
We're better off without you
I can feel the pressure
It's getting closer now
We're better off without you

VERSE 2
Now that I'm losing hope
And there's nothing else to show
For all of the days that we spent
Carry away from home
Some things I'll never know
And I had to let them go
I'm sitting all alone
Feeling empty

CHORUS
I can feel the pressure
It's getting closer now
We're better off without you
I can feel the pressure
It's getting closer now
We're better off without you

POST-CHORUS
Without you

BRIDGE
Some things I'll never know
And I had to let them go
Some things I'll never know
And I had to let them go
I'm sitting all alone
Feeling empty

CHORUS
I can feel the pressure
It's getting closer now
We're better off without you
Feel the pressure
It's getting closer now
You're better off without me
Tap to rate this tab
 
# A B C D E F G H I J K L M N O P Q R S T U V W X Y Z