Song name
# A B C D E F G H I J K L M N O P Q R S T U V W X Y Z

Paramore - I Caught Myself tab

YMPY.0518 :)) ||
==============\\



ok this is my first tab and I'm just 13 years old so please bear with me...
my tab has no timing, so just figure it out by your own :D


TUNING: Standard

Intro
Guitar 1

e|4-----4------7---7--|  
B|--5-----5-----------| (played during
G|----6-----6----6---6| whole intro)
D|--------------------|
A|--------------------|
E|--------------------|

Guitar 2 (0:08)
e|---------2-------------2------------5---------4---------2--------|
B|---2-------------2------------2--------2---------2---------2-----|
G|4-----4-------4-----4------4-----4--------4---------4---------4--|
D|-----------------------------------------------------------------|
A|-----------------------------------------------------------------|
E|-----------------------------------------------------------------|

(0:17)
e|---------2--------------------2---------------------5---------4---------4-----------|
B|---2---------2---2-------2--------2---2-------2--------2---------2---------2-----2--|
G|4-----4--------4------4-----4-------4------4-----4--------4---------4---------4-----|
D|------------------------------------------------------------------------------------|
A|------------------------------------------------------------------------------------|
E|------------------------------------------------------------------------------------|

Verse 1:
Guitar 1
e|16-------16--------19----19----|
B|---17-------17-----------------|
G|------18-------18-----18----18-|
D|-------------------------------|
A|-------------------------------|
E|-------------------------------|

               Well, that's all I've got. :D
 
           - Enriko Ducut \m/
Tap to rate this tab
# A B C D E F G H I J K L M N O P Q R S T U V W X Y Z