Song name
# A B C D E F G H I J K L M N O P Q R S T U V W X Y Z

Paramore - Stuck On You tab

Guitar 1: Idle

Guitar 2:
e|----------------|-12------11-----------|
B|-9----9------12-|----9-------9----9----|
G|--11---11-------|------11------11---11-|
D|---11----11-----|----------------------| (x3)
A|----------------|----------------------|
D|----------------|----------------------|
          x3

Guitar 1: will enter at 0:13
e|--------------|
B|--------------|
G|--------------|
D|-4--7--1--6--9| (x2)
A|-4--7--1--6--9|
D|-4--7--1--6--9|
  x8  x8 x8 x4 x4

Verse 1
Guitar 1
e|--------------|
B|--------------|
G|--------------|
D|-4--7--1--6--9| (x2)
A|-4--7--1--6--9|
D|-4--7--1--6--9|
  x8  x8 x8 x4 x4

    

Chorus
Guitar 1:
e|--------------|
B|--------------|
G|--------------|
D|-4--7--1--6--9| (x1)
A|-4--7--1--6--9|
D|-4--7--1--6--9|
  x8  x8 x8 x4 x4

Guitar 2:
e|----------------|-12------11-----------|
B|-9----9------12-|----9-------9----9----|
G|--11---11-------|------11------11---11-|
D|---11----11-----|----------------------| (x3)
A|----------------|----------------------|
D|----------------|----------------------|
          x3


Verse 2:
e|--------------|
B|--------------|
G|--------------|
D|-4--7--1--6--9| (x2)
A|-4--7--1--6--9|
D|-4--7--1--6--9|
  x8  x8 x8 x4 x4

 



Chorus (x3)


Verse 3:
Guitar 1
e|--------------|
B|--------------|
G|--------------|
D|-4--7--1--6--9| (x2)
A|-4--7--1--6--9|
D|-4--7--1--6--9|
  x8  x8 x8 x4 x4

 


Chorus (x3)


Bridge:
Guitar 1
e|--------------|
B|--------------|
G|--------------|
D|-4--7--1--6--9| (x4)
A|-4--7--1--6--9|
D|-4--7--1--6--9|
  x8  x8 x8 x4 x4

Tap to rate this tab
 
# A B C D E F G H I J K L M N O P Q R S T U V W X Y Z