Song name
# A B C D E F G H I J K L M N O P Q R S T U V W X Y Z

Paramore - Thats What You Get tab

Thats What You Get By Paramore I've Tabbed This By Ear

If There Is Any Mistakes Just Comment

Dont Forget To Rate....=]


Guitar 2

eb|------------------------------------------------------------|
Bb|------------------------------------------------------------|
Gb|------------------------------------------------------------|
Db|--7----xxxxxx---7----xxxxxx--9----xxxxxx-9----xxxxxx-11-9---|(x2)
Ab|--7(x2)xxxxxx---7(x2)xxxxxx--9(x2)xxxxxx-9(x2)xxxxxx-11-9---|
Eb|--5----xxxxxx---5----xxxxxx--7----xxxxxx-7----xxxxxx-9--7---|

Guitar 1

eb|-----------------------------------------------------|
Bb|-----------------------------------------------------|
Gb|-------------------------------------------131313-11-|x2
Db|-------4h6------6h9----------9h11----------x-x-x--x--|
Ab|-4-4-4-----4-4-4-----6-6-6-----------------111111-9--|
Eb|-----------------------------------------------------|


Guitar1


eb|---7------7-------7-------7-----|
Bb|---9------7-------9-------7-----|
Gb|---9------9-------9-------9-----|
Db|--------------------------------|2x
Ab|--------------------------------|
Eb|--------------------------------|


Guitar2PALM MUTE

eb|-----------------------------------|
Bb|-----------------------------------|
Gb|-----------------------------------|
Db|-7-7-7--7-7-7---9-9-9---11-11-11---|4x
Ab|-7-7-7--7-7-7---9-9-9---11-11-11---|
Eb|-5-5-5--5-5-5---7-7-7---9--9--9----|
    * * *  * * *   * * *   *  *  *


Guitar 2

eb|------------------------------------------------------------|
Bb|------------------------------------------------------------|
Gb|------------------------------------------------------------|
Db|--7----xxxxxx---7----xxxxxx--9----xxxxxx-9----xxxxxx-11-9---|(x2)
Ab|--7(x2)xxxxxx---7(x2)xxxxxx--9(x2)xxxxxx-9(x2)xxxxxx-11-9---|
Eb|--5----xxxxxx---5----xxxxxx--7----xxxxxx-7----xxxxxx-9--7---|

Guitar 1

eb|-----------------------------------------------------|
Bb|-----------------------------------------------------|
Gb|-------------------------------------------131313-11-|x2
Db|-------4h6------6h9----------9h11----------x-x-x--x--|
Ab|-4-4-4-----4-4-4-----6-6-6-----------------111111-9--|
Eb|-----------------------------------------------------|


eb|---7------7-------7-------7-----|
Bb|---9------7-------9-------7-----|
Gb|---9------9-------9-------9-----|
Db|--------------------------------|2x
Ab|--------------------------------|
Eb|--------------------------------|


Guitar2 PALM MUTE

eb|-----------------------------------|
Bb|-----------------------------------|
Gb|-----------------------------------|
Db|-7-7-7--7-7-7---9-9-9---11-11-11---|4x
Ab|-7-7-7--7-7-7---9-9-9---11-11-11---|
Eb|-5-5-5--5-5-5---7-7-7---9--9--9----|
    * * *  * * *   * * *   *  *  *

Guitar 1

eb|----
Bb|----
Gb|----
Db|-2~-
Ab|-2~-
Eb|-0~-

Guitar 2

eb|-0--
Bb|-0--
Gb|-9~-
Db|-9~-
Ab|-7~-
Eb|----

Chorus-

Guitar1

eb|--------------------------------|
Bb|--------------------------------|
Gb|---------------6666--44444------|
Db|-77777--22222--6666--44444------|
Ab|-77777--22222--4444--22222------|
Eb|-55555--00000-------------------|

Guitar2

eb|-16~------16~--------------------16~------16~-----14~------14~--------|
Bb|-----17~-------17~--16h17-16-----------17~-----17~--------------------|
Gb|----------------------------16------------------------16~-------16~---|
Db|----------------------------------------------------------------------|
Ab|----------------------------------------------------------------------|
Eb|----------------------------------------------------------------------|

GUITAR1

eb|--------------------------------|
Bb|--------------------------------|
Gb|----------------4444444444------|
Db|-77777--222222--4444444444------|
Ab|-77777--222222--2222222222------|
Eb|-55555--000000------------------|

GUITAR2

eb|-16~------16~---------------------14~------14~----14~------14~--------|
Bb|-----17~-------17~--16h17-16------------------------------------------|
Gb|----------------------------16--------16~-------16~----16~-------16~--|
Db|----------------------------------------------------------------------|
Ab|----------------------------------------------------------------------|
Eb|----------------------------------------------------------------------|


GUITAR1

eb|-------------------------|
Bb|-------------------------|
Gb|---6666666--4444444------|
Db|---6666666--4444444------|2x
Ab|---4444444--2222222------|
Eb|-------------------------|

GUITAR2
eb|--------------------------------------------------------------------|
Bb|--------------------------------------------------------------------|
Gb|---------------------13-13----1616---13--13-13----------------------|
Db|--14-14-14--16-16--------------------------------16--16--16--16-----|
Ab|--------------------------------------------------------------------|
Eb|--------------------------------------------------------------------|


eb|--------------------------------------------------------------------|
Bb|--------------------------------------------------------------------|
Gb|---------------------13-13----1616---13--13-13----------------------|
Db|--14-14-14--16-16--------------------------------14--16--16--16-----|
Ab|--------------------------------------------------------------------|
Eb|--------------------------------------------------------------------|

GUITAR1
eb|--------------------------------|
Bb|--------------------------------|
Gb|----------------4444444444------|
Db|-77777--222222--4444444444------|
Ab|-77777--222222--2222222222------|
Eb|-55555--000000------------------|

Guitar2
eb|-16~------16~---------------------14~------14~----14~------14~--------|
Bb|-----17~-------17~--16h17-16------------------------------------------|
Gb|----------------------------16--------16~-------16~----16~-------16~--|
Db|----------------------------------------------------------------------|
Ab|----------------------------------------------------------------------|
Eb|----------------------------------------------------------------------|

Interlude-

Guitar2

eb|-------------------------------------------------|
Bb|-------------------------------------------------|
Gb|-------------------------------------------------|
Db|-111111-----111111-----131313----11-11-11---11---|2x
Ab|-111111-----111111-----131313----11-11-11---11---|
Eb|-999999-----999999-----111111----9--9--9----9----|

then...
do intro


repeat verse

Pre-chorus

Repeat Chorus


Verse-

Continued...
Do intro

Chorus-

Drum beats then

eb|-----------------------------|
Bb|-----------------------------|
Gb|--4-4-4-4-4-44444444---------|
Db|--4-4-4-4-4-44444444---------|
Ab|--2-2-2-2-2-22222222---------|
Eb|-----------------------------|
   * * * * * *


Repeat chorus then

Guitar 1
eb|-16~---14~------12~~------|
Bb|-17~---14-------12~~------|
Gb|-16----16~------11--------|
Db|--------------------------|
Ab|--------------------------|
Eb|--------------------------|


Guitar 2

eb|----------------------|
Bb|----------------------|
Gb|----------------------|
Db|-777-xxxx-777-xxxx-2~-|
Ab|-777-xxxx-777-xxxx-2~-|
Eb|-555-xxxx-555-xxxx-0~-|
Tap to rate this tab
# A B C D E F G H I J K L M N O P Q R S T U V W X Y Z