Song name
# A B C D E F G H I J K L M N O P Q R S T U V W X Y Z

Paramore - Turn It Off tab

Turn It Off- Paramore

[Note: I'm really sorry if the Solo is slightly wrong]

Introduction:
[Drum Intro]

E|8-7-8-7-3--------|8-7-8-7-3-------|8-7-8-7-3--------|8-7-8-7-3-----------|
B|---------3-5-6-5-|---------3-5-6-5|---------3-5-6-5-|---------3-5-6-5-3-1|
G|----------------2|----------------|----------------2|--------------------|
D|-----------------|----------------|-----------------|--------------------|
A|-----------------|----------------|-----------------|--------------------|
E|-----------------|----------------|-----------------|--------------------|

[Verse 1+2]
I scraped my knees while i was praying...
E|---0----0|
B|--1----1-|
G|-0----0--|
D|2----2---|
A|---------|
E|---------|

And Found a demon in my safest haven...
E|---0----0|
B|--1----1-|
G|-0----0--|
D|3----3---|
A|---------|
E|---------|

[Alternate line to line]

[Power chords]
C                  G
And the worst part is
                Am
Before it get's any better
      F       G
We're heading for a cliff
C
And in the free fall,
G              Am
I will realize I'm better off
F              G
When I hit the bottom.

E|8-7-8-7-3---------|8-7-8-7-3-----------|
B|---------3-5-6-5--|---------3-5-6-5-6-8|
G|-----------------2|--------------------|
D|------------------|--------------------|
A|------------------|--------------------|
E|------------------|--------------------|

[Verse 3+4]

[Do the same as verses 1+2]

[Chorus]

Solo

E|8-7-8-7-3--------|8-7-8-7-3-------|-8-10-8|-12-10-8|
B|---------3-5-6-5-|---------3-5-6-5|-------|--------|
G|----------------2|----------------|9------|8-------|
D|-----------------|----------------|-------|--------|
A|-----------------|----------------|-------|--------|
E|-----------------|----------------|-------|--------|

E|-17-20-19-14-12-15-12-5|
B|-----------------------|
G|14---------------------|
D|-----------------------|
A|-----------------------|
E|-----------------------|

Calm Bit

[It's the same thing as the previous verses but strum slowly then...]

Just turn it off...

E|0|
B|1|
G|0|
D|0|
A|-|
E|-|

Screamy bit:

[Note: Chords not in precise places. Just do 4 beats per chords]

[Power chords]

Am, C, F, G
AGAIN [Hayley Holds]

Am     C      F  G
AGAIN, AGAIN, AGAIN!!!!!!!!!!!

[Chorus]

Outro:

[Finger picking]

E|---------------|---------------|---------------|---------------|
B|6-5-5-6-5-5-5-5|6-5-5-6-5-5-5-5|6-5-5-6-5-5-5-5|5-3-3-3-3-3-3-3|
G|7-5-5-7-5-5-5-5|7-5-5-7-5-5-5-5|7-5-5-7-5-5-5-5|5-4-4-4-4-4-4-4|
D|---------------|---------------|---------------|---------------|
A|---------------|---------------|---------------|---------------|
E|---------------|---------------|---------------|---------------|

[Repeat til the end]

Just want to say, I'm really sorry I don't have the other guitar bit. I don't know it. 
reallyt this part is more important.

Enjoy :))
Tap to rate this tab
 
# A B C D E F G H I J K L M N O P Q R S T U V W X Y Z