Song name
# A B C D E F G H I J K L M N O P Q R S T U V W X Y Z

Paramore - Turn It Off tab

                        TURN IT OFF by PARAMORE

--this is my longest tab so far..hope this doesn't get rejected...i couldn't find 
any good tab for this song so i made one....PLEASE RATE!!!


Lead Guitar(Guitar1):

Intro:
E|---------------------------------|
B|---------------------------------|
G|---------------------------------|
D|-/10-9-10-9----------------3-3---|
A|------------10--5-5-7-8-7~-3-3---|
E|---------------------------1-1---|

E|-----------------------------|
B|-----------------------------|
G|-----------------------------|
D|-/10-9-10-9------------------|
A|------------10--5-5-7-8-7~---|
E|-----------------------------|

E|-/8-7-8-7-----------------------|
B|----------8---------------------|
G|------------7-7-9-10-9~-7h9p7---|
D|--------------------------------|
A|--------------------------------|
E|--------------------------------|

E|-/8-7-8-7-------------------------|
B|----------8-----------------------|
G|------------7-7-9-10-9~-7h9p7-5---|
D|----------------------------------|
A|----------------------------------|
E|----------------------------------|


Verse:

(do this after rhythms(guitar2) does 2 chord patterns)

E|-----12------12------12------12------|
B|---13--13--13--13--13--13--13--13----|
G|-14------14------14------14----------|
D|-------------------------------------|
A|-------------------------------------|
E|-------------------------------------|

E|-----13------13------10------10------|
B|---13--13--13--13--13--13--13--13----|
G|-14------14------14------14----------|
D|-------------------------------------|
A|-------------------------------------|
E|-------------------------------------|

E|-----12------12------12------12------|
B|---13--13--13--13--13--13--13--13----|
G|-14------14------14------14----------|
D|-------------------------------------|
A|-------------------------------------|
E|-------------------------------------|
                     PMPMPMPM
E|-----13------13------------------|
B|---13--13--13--13----------------|
G|-14------14----------------------|
D|-------------------33333333------|
A|-------------------33333333------|
E|-------------------11111111------|


Chorus:
E|----------------------------------------|
B|-----------------------------88888888---|
G|-7-5-5-7-5-5-5---------44-55------------|
D|--------------99999999------------------|
A|----------------------------------------|
E|----------------------------------------|

E|----------------------------------------|
B|-----------------------------88888888---|
G|-7-5-5-7-5-5-5---------44-55------------|
D|--------------99999999------------------|
A|----------------------------------------|
E|----------------------------------------|


Interlude:

E|---------------------------------|
B|---------------------------------|
G|---------------------------------|
D|-/10-9-10-9----------------3-3---|
A|------------10--5-5-7-8-7~-3-3---|
E|---------------------------1-1---|

E|-/8-7-8-7--------------------------|
B|----------8------------------------|
G|------------7-7-9-10-9-10/12-12~---|
D|-----------------------------------|
A|-----------------------------------|
E|-----------------------------------|


Verse:

(do this after rhythms(guitar2) does 2 chord patterns)

E|-----12------12------12------12------|
B|---13--13--13--13--13--13--13--13----|
G|-14------14------14------14----------|
D|-------------------------------------|
A|-------------------------------------|
E|-------------------------------------|

E|-----13------13------10------10------|
B|---13--13--13--13--13--13--13--13----|
G|-14------14------14------14----------|
D|-------------------------------------|
A|-------------------------------------|
E|-------------------------------------|

E|-----12------12------12------12------|
B|---13--13--13--13--13--13--13--13----|
G|-14------14------14------14----------|
D|-------------------------------------|
A|-------------------------------------|
E|-------------------------------------|
                    
E|-----13------13---------|
B|---13--13--13--13-------|
G|-14------14-------------|
D|------------------------|
A|------------------------|
E|------------------------|


Chorus:
E|----------------------------------------|
B|-----------------------------88888888---|
G|-7-5-5-7-5-5-5---------44-55------------|
D|--------------99999999------------------|
A|----------------------------------------|
E|----------------------------------------|

E|----------------------------------------|
B|-----------------------------88888888---|
G|-7-5-5-7-5-5-5---------44-55------------|
D|--------------99999999------------------|
A|----------------------------------------|
E|----------------------------------------|


Solo:
E|---------------------------------|
B|---------------------------------|
G|---------------------------------|
D|-/10-9-10-9----------------3-3---|
A|------------10--5-5-7-8-7~-3-3---|
E|---------------------------1-1---|

E|-/8-7-8-7-----------------|
B|----------8---------------|
G|------------7-7-9-10-9~---|
D|--------------------------|
A|--------------------------|
E|--------------------------|

E|------------13-12-10-8~---|
B|----13-15-13--------------|
G|-/15----------------------|
D|--------------------------|
A|--------------------------|
E|--------------------------|

E|-------20-19-----13p12----------|
B|----17------17-15---------------|
G|-/14------------------14~-------|
D|--------------------------------|
A|--------------------------------|
E|--------------------------------|

Bridge:

(do on note each time the rhythms(guitar2) plays a chord 

exept for the last note-the one with the pinch harmonics)

E|----------------12----|
B|--10---13-------------|
G|-----------10---------|
D|----------------------|
A|----------------------|
E|----------------------|

E|----------------12--------|
B|--10---13------------<13>-|
G|-----------10-------------|
D|--------------------------|
A|--------------------------|
E|--------------------------|

(mix with the rhythms guitar(guitar2) here)

E|-------------------|
B|-------------------|
G|-7-5-5-7-5-5-5-5---|
D|-------------------|
A|-------------------|
E|-------------------|

E|-------------------|
B|-------------------|
G|-7-5-5-7-5-5-5-5---|
D|-------------------|
A|-------------------|
E|-------------------|

E|---------------------------|
B|---------------------------|
G|-7-5-5-7-5-5-5-5-44444444--|
D|---------------------------|
A|---------------------------|
E|---------------------------|

Last Chorus:

E|----------------------------|
B|--------------88888888------|
G|-/12----44-55---------------|
D|----------------------------|
A|----------------------------|
E|----------------------------|

E|----------------------------------------|
B|-----------------------------88888888---|
G|-7-5-5-7-5-5-5---------44-55------------|
D|--------------99999999------------------|
A|----------------------------------------|
E|----------------------------------------|

E|-----------------|
B|-------8-8-------|
G|-9-7-7-----9-9-9-|
D|-----------------|
A|-----------------|
E|-----------------|

E|-----------------|
B|-------8-8-------|
G|-9-7-7-----9-9-9-|
D|-----------------|
A|-----------------|
E|-----------------|

E|--------------------------------|
B|--------------------------------|
G|-4-4-5-5-7777-2-2-4-4-5-5-------|
D|--------------------------------|
A|--------------------------------|
E|--------------------------------|

E|-----------------|
B|-------8-8-------|
G|-9-7-7-----9-9-9-|
D|-----------------|
A|-----------------|
E|-----------------|

E|-----------------|
B|-------8-8-------|
G|-9-7-7-----9-9-9-|
D|-----------------|
A|-----------------|
E|-----------------|

E|--------------------------------|
B|--------------------------------|
G|-4-4-5-5-7777-2-2-4-4-5-5-------|
D|--------------------------------|
A|--------------------------------|
E|--------------------------------|

E|-----------------|
B|-------8-8-------|
G|-9-7-7-----9-9-9-|
D|-----------------|
A|-----------------|
E|-----------------|

E|-----------------|
B|-------8-8-------|
G|-9-7-7-----9-9-9-|
D|-----------------|
A|-----------------|
E|-----------------|

E|--------------------------------|
B|--------------------------------|
G|-4-4-5-5-7777-2-2-4-4-5-5-------|
D|--------------------------------|
A|--------------------------------|
E|--------------------------------|

E|-----------------|
B|-------8-8-------|
G|-9-7-7-----9-9-9-|
D|-----------------|
A|-----------------|
E|-----------------|

E|-----------------|
B|-------8-8-------|
G|-9-7-7-----9-9-9-|
D|-----------------|
A|-----------------|
E|-----------------|

E|--------------------------------|
B|--------------------------------|
G|-4-4-5-5-7777-2-2-4-4-5-5-------|
D|--------------------------------|
A|--------------------------------|
E|--------------------------------|


Outro:

wait for rhythms(guitar2) to finish 1 chord pattern then do this

E|-12------12-----13----|
B|---13-13---13-13------|
G|----------------------|
D|----------------------|
A|----------------------|
E|----------------------|

E|-12-----13-15-13------|
B|---13-13--------------|
G|----------------------|
D|----------------------|
A|----------------------|
E|----------------------|

E|-12------12-----13----|
B|---13-13---13-13------|
G|----------------------|
D|----------------------|
A|----------------------|
E|----------------------|

E|----------------------|
B|-15------15-----15----|
G|---16-16---16-16------|
D|----------------------|
A|----------------------|
E|----------------------|


E|-12------12-----13----|
B|---13-13---13-13------|
G|----------------------|
D|----------------------|
A|----------------------|
E|----------------------|

E|-12-----13-15-13------|
B|---13-13--------------|
G|----------------------|
D|----------------------|
A|----------------------|
E|----------------------|

E|-12------12-----13----|
B|---13-13---13-13------|
G|----------------------|
D|----------------------|
A|----------------------|
E|----------------------|

E|----------------------|
B|-15------15-----15----|
G|---16-16---16-16------|
D|----------------------|
A|----------------------|
E|----------------------|

E|-12------12-----13----|
B|---13-13---13-13------|
G|----------------------|
D|----------------------|
A|----------------------|
E|----------------------|

E|-12-----13-15-13------|
B|---13-13--------------|
G|----------------------|
D|----------------------|
A|----------------------|
E|----------------------|

E|-12------12-----13----|
B|---13-13---13-13------|
G|----------------------|
D|----------------------|
A|----------------------|
E|----------------------|

E|--------------------12~--|
B|-15------15------15-13~--|
G|---16-16---16-16-16------|
D|-------------------------|
A|-------------------------|
E|-------------------------|

end~


Rhythms Guitar(Guitar2):

Intro:

strum these chords:

    Am G/B  C   F
E|--0---3---0---1---|
B|--1---0---1---1---|
G|--2---0---0---2---|(4x)
D|--2---0---2---3---|
A|--0---1---3---3---|
E|------2-------1---|

Verse

E|----0------0------0------0----|
B|-----1------1---1--1---1--1---|
G|--2------0--------------------|
D|---------------3-3----3-3-----|(3X)
A|-0-0----3-3-------------------|
E|------------------------------|

                        PMPMPMPM
E|----0------0------0----------------|
B|-----1------1---1--1---------------|
G|--2------0-------------------------|
D|---------------3-3----33333333-----|
A|-0-0----3-3-----------33333333-----|
E|----------------------11111111-----|

Chorus:

strum these chords:

   C  G  Am  F  G
E|-0--3---0--1--3----|
B|-1--3---1--1--3----|
G|-0--0---2--2--4----|(2x)
D|-2--0---2--3--5----|
A|-3--2---0--3--5----|
E|----3------1--3----|

Interlude:

strum these chords:

    Am G/B  C   F
E|--0---3---0---1---|
B|--1---0---1---1---|
G|--2---0---0---2---|(2x)
D|--2---0---2---3---|
A|--0---1---3---3---|
E|------2-------1---|

Verse:

E|----0------0------0------0----|
B|-----1------1---1--1---1--1---|
G|--2------0--------------------|
D|---------------3-3----3-3-----|(3X)
A|-0-0----3-3-------------------|
E|------------------------------|

                        
E|----0------0------0------|
B|-----1------1---1--1~----|
G|--2------0---------------|
D|---------------3-3-------|
A|-0-0----3-3--------------|
E|-------------------------|

Chorus:

strum these chords:

   C  G  Am  F  G
E|-0--3---0--1--3----|
B|-1--3---1--1--3----|
G|-0--0---2--2--4----|(2x)
D|-2--0---2--3--5----|
A|-3--2---0--3--5----|
E|----3------1--3----|


Solo:

strum these chords:

    Am G/B  C   F
E|--0---3---0---1---|
B|--1---0---1---1---|
G|--2---0---0---2---|(2x)
D|--2---0---2---3---|
A|--0---1---3---3---|
E|------2-------1---|

    Am  C   F
E|--0---0---1---|
B|--1---1---1---|
G|--2---0---2---|
D|--2---2---3---|
A|--0---3---3---|
E|----------1---|

Bridge:

Strum one chord once until the second time you play the chord pattern. 

    Am  C   F   F
E|--0---0---0---0--|
B|--1---1---1---1--|
G|--2---0---2---2--|(4x)
D|--2---2---3---3--|
A|--0---3---0---0--|
E|-----------------|


Last Chorus:

strum these chords:

   C  G  Am  F  G
E|-0--3---0--1--3----|
B|-1--3---1--1--3----|
G|-0--0---2--2--4----|(4x)
D|-2--0---2--3--5----|
A|-3--2---0--3--5----|
E|----3------1--3----|

Outro:

E|------------------|
B|------------------|
G|-7-55-7-5555------|
D|-x-xx-x-xxxx------|(3x)
A|-5-33-5-3333------|
E|------------------|

E|------------|
B|------------|
G|-44444444---|
D|-xxxxxxxx---|
A|-22222222---|
E|------------|

E|------------------|
B|------------------|
G|-7-55-7-5555------|
D|-x-xx-x-xxxx------|(3x)
A|-5-33-5-3333------|
E|------------------|

E|------------|
B|------------|
G|-44444444---|
D|-xxxxxxxx---|
A|-22222222---|
E|------------|

E|------------------|
B|------------------|
G|-7-55-7-5555------|
D|-x-xx-x-xxxx------|(3x)
A|-5-33-5-3333------|
E|------------------|

E|------------|
B|------------|
G|-44444444---|
D|-xxxxxxxx---|
A|-22222222---|
E|------------|

E|------------------|
B|------------------|
G|-7-55-7-5555------|
D|-x-xx-x-xxxx------|(3x)
A|-5-33-5-3333------|
E|------------------|

E|----------------|
B|----------------|
G|-44444444--4-5--|
D|-xxxxxxxx--x-x--|
A|-22222222--2-3--|
E|----------------|

end~
Tap to rate this tab
# A B C D E F G H I J K L M N O P Q R S T U V W X Y Z