Song name
# A B C D E F G H I J K L M N O P Q R S T U V W X Y Z

Paramore - Where The Lines Overlap Acoustic tab

-------------------------------------------------------------------------------
			     WHERE THE LINES OVERLAP - Paramore
-------------------------------------------------------------------------------
Tabbed by: rockett97
Email: rockett97@hotmail.com

Hey! Wow, I finally figured out the chords to this song.
It took me quite a while to get everything right, 
but I think I did a decent job! =D
This is just Joshís part, so you can just play it by yourself or whatever, 
sounds perfect!

Tell me what you think, mail me, COMMENT, and oh, PLEASE RATE!!
Later guys.

(by the way; I did not tab any strumming patterns or amounts of times you have to 
play one chord in this tab, itís kind of obvious when you start playing it. 
So thatís why I only put down the chords!)

Tuning: Standard

Intro

e|------------------|
B|------------------|
G|------------------|
D|-6--7-9----6--7-9-|
A|-7--0-0----7--0-0-|
E|-0--0-0----0--0-0-|

Verse

e|----------------------------------|
B|----------------------------------|
G|----------------------------------|
D|-6--7-9----6--7-9----11-x----11-9-| 
A|-7--0-0----7--0-0----x--7----x--x-|
E|-0--0-0----0--0-0----9--0----9--7-|

e|--------------------------------------|
B|--------------------------------------|
G|--------------------------------------|
D|-6--7-9----6--7-9----11-x----11-9---7-| 
A|-7--0-0----7--0-0----x--7----x--x---7-|
E|-0--0-0----0--0-0----9--0----9--7---5-|

Chorus

Note: strum the first four chords 16 times (8 counts), 
and the rest of the chorus 8 times (4 counts). 
Listen to the song to hear what I mean, itís easy

e|-0--0--0--0--4--0--0--2--4--5--0--x-|
B|-0--0--0--0--5--0--0--2--5--5--0--x-|
G|-1--2--1--2--6--2--1--4--6--4--1--x-|
D|-2--2--2--2--6--2--2--4--6--6--2--4-|
A|-2--0--2--0--4--0--2--2--4--6--2--4-|
E|-0--x--0--x--4--x--0--2--4--5--0--2-|

Verse

e|--------------------------------------|
B|--------------------------------------|
G|--------------------------------------|
D|-6--7-9----6--7-9----11-x----11-9-9-9-| 
A|-7--0-0----7--0-0----x--7----x--x-x-x-|
E|-0--0-0----0--0-0----9--0----9--7-7-7-|

e|--------------------------------------|
B|--------------------------------------|
G|---------------------------------------------|
D|-6--7-9----6--7-9----11-x----11-9--7-7-7-7-9-| 
A|-7--0-0----7--0-0----x--7----x--x--x-x-x-x-x-|
E|-0--0-0----0--0-0----9--0----9--7--5-5-5-5-7-|

Chorus

Note: strum the first four chords 16 times (8 counts), 
and the rest of the chorus 8 times (4 counts). 
Listen to the song to hear what I mean, itís easy

e|-0--0--0--0--4--0--0--2--4--5--0--x-|
B|-0--0--0--0--5--0--0--2--5--5--0--x-|
G|-1--2--1--2--6--2--1--4--6--4--1--x-|
D|-2--2--2--2--6--2--2--4--6--6--2--4-|
A|-2--0--2--0--4--0--2--2--4--6--2--4-|
E|-0--x--0--x--4--x--0--2--4--5--0--2-|

Bridge

Note: Palm-mute the first section (and listen to song for Ďamountsí)

e|(4)-(6)-(0)-(0)-(4)-(6)-(0)-(0)-0--0-|
B|(5)-(6)-(0)-(0)-(5)-(6)-(0)-(0)-0--0-|
G|-6---8--(1)--2---6---8--(1)--2--2--2-|
D|-6---8---2---2---6---8---2---2--2--2-|
A|-4---6---2---0---4---6---2---0--0--0-|
E|-x---x---0---x---x---x---0---x--x--x-|
   .   .   .   .   .   .   .

e|-4--7--0--0----4--7-7-7-7-7-7----0-0-|
B|-5--7--0--0----5--7-7-7-7-7-7----0-0-|
G|-6--9--1--2----6--9-9-9-9-9-9----1-1-|
D|-6--9--2--2----6--9-9-9-9-9-9----2-2-|
A|-4--7--2--0----4--7-7-7-7-7-7----2-2-|
E|-4--7--0--x----4--7-7-7-7-7-7----0-0-|

Chorus

Note: strum the first four chords 16 times (8 counts), 
and the rest of the chorus 8 times (4 counts). 
Listen to the song to hear what I mean, itís easy

e|-0--0--0--4--0--0--2--4--5--0--x-|
B|-0--0--0--5--0--0--2--5--5--0--x-|
G|-2--1--2--6--2--1--4--6--4--1--x-|
D|-2--2--2--6--2--2--4--6--6--2--4-|
A|-0--2--0--4--0--2--2--4--6--2--4-|
E|-x--0--x--4--x--0--2--4--5--0--2-|

Outro

Basically just repeat the chords below.

e|-0--0--0--0--0--0--0--0--0--0--0--0--0--0--0--0----0-|
B|-0--0--0--0--0--0--0--0--0--0--0--0--0--0--0--0----0-|
G|-1--2--1--2--1--2--1--2--1--2--1--2--1--2--1--2----1-|
D|-2--2--2--2--2--2--2--2--2--2--2--2--2--2--2--2----2-|
A|-2--0--2--0--2--0--2--0--2--0--2--0--2--0--2--0----2-|
E|-0--x--0--x--0--x--0--x--0--x--0--x--0--x--0--x----0-|

Thatís it!

RATE AND COMMENT PLEASE!

************************************

| X   Mute note
| .   Palm-mute note


************************************

Tap to rate this tab
# A B C D E F G H I J K L M N O P Q R S T U V W X Y Z