Song name
# A B C D E F G H I J K L M N O P Q R S T U V W X Y Z

Paramore - The Only Exception tab

:: Paramore - The Only Exception ::

- Tuning: Standard (e,b,g,d,a,E)
- Capo on 4th fret (Guitar 1 - Josh)

This is probably one of my favorite Paramore songs EVER :) This is also my first tab...
rate and tell me what you think. ^_^

Intro:
(Guitar 1 - Josh) X2
e|-3--33-33-3--33-33-3--33-33-3--33-33-1--11-11-1--11-11-0--00-00--0-00-00-|
b|-3--33-33-3--33-33-3--33-33-3--33-33-3--33-33-3--33-33-0--00-00--0-00-00-|
g|-0--00-00-0--00-00-0--00-00-0--00-00-2--22-22-2--22-22-0--00-00--0-00-00-|
d|-0--00-00-0--00-00-0--00-00-0--00-00-0--00-00-0--00-00-2--22-22--2-22-22-|
a|-2--22-22-2--22-22-2--22-22-2--22-22-------------------3--33-33--3-33-33-|
E|-3--33-33-3--33-33-3--33-33-3--33-33-------------------------------------|

(Guitar 2 - Taylor) - Delay effect used. (this isn't in time with the strumming above,
xD)
e|-11~-----------9~-----7~-----11~-----14~-----9~-----7~-----|
b|-12~----------10~-----9~-----12~------------10~-----9~-----|
g|-----------------------------------------------------------|
d|-----------------------------------------------------------|
a|-----------------------------------------------------------|
E|-----------------------------------------------------------|

Verse:
(Josh) X4
e|-3--33-33-3--33-33-3--33-33-3--33-33-1--11-11-1--11-11-0--00-00--0-00-00-|
b|-3--33-33-3--33-33-3--33-33-3--33-33-3--33-33-3--33-33-0--00-00--0-00-00-|
g|-0--00-00-0--00-00-0--00-00-0--00-00-2--22-22-2--22-22-0--00-00--0-00-00-|
d|-0--00-00-0--00-00-0--00-00-0--00-00-0--00-00-0--00-00-2--22-22--2-22-22-|
a|-2--22-22-2--22-22-2--22-22-2--22-22-------------------3--33-33--3-33-33-|
E|-3--33-33-3--33-33-3--33-33-3--33-33-------------------------------------|

(Taylor) X2 - Only starts on the line where Hayley sings 'My momma swore...'
e|-11~---------------11~---------------9~----------------7~-----------|
b|-12~---------------12~--------------10~----------------9~-----------|
g|--------------------------------------------------------------------|
d|--------------------------------------------------------------------|
a|--------------------------------------------------------------------|
E|--------------------------------------------------------------------|

Chorus:
(Josh) X2
e|-3--33-33-3--33-33-3--33-33-3--33-33-1--11-11-1--11-11-0--00-00--0-00-00-|
b|-3--33-33-3--33-33-3--33-33-3--33-33-3--33-33-3--33-33-0--00-00--0-00-00-|
g|-0--00-00-0--00-00-0--00-00-0--00-00-2--22-22-2--22-22-0--00-00--0-00-00-|
d|-0--00-00-0--00-00-0--00-00-0--00-00-0--00-00-0--00-00-2--22-22--2-22-22-|
a|-2--22-22-2--22-22-2--22-22-2--22-22-------------------3--33-33--3-33-33-|
E|-3--33-33-3--33-33-3--33-33-3--33-33-------------------------------------|

(Taylor) X2
e|-------------------------------------9--9--9--9--9--9--11-11-11-11-11-11-|
b|-12-12-12-12-12-12-12-12-12-12-12-12-------------------------------------|
g|-------------------------------------------------------------------------|
d|-------------------------------------------------------------------------|
a|-------------------------------------------------------------------------|
E|-------------------------------------------------------------------------|

(Josh)
e|-3--33-33-3--33-33-3--33-33-3--33-33--|
b|-3--33-33-3--33-33-3--33-33-3--33-33--|
g|-0--00-00-0--00-00-0--00-00-0--00-00--|
d|-0--00-00-0--00-00-0--00-00-0--00-00--|
a|-2--22-22-2--22-22-2--22-22-2--22-22--|
E|-3--33-33-3--33-33-3--33-33-3--33-33--|

(Taylor)
e|-11~---------------14~----------------|
b|-12~----------------------------------|
g|--------------------------------------|
d|--------------------------------------|
a|--------------------------------------|
E|--------------------------------------|

Verse:
(Josh) X4
e|-3--33-33-3--33-33-3--33-33-3--33-33-1--11-11-1--11-11-0--00-00--0-00-00-|
b|-3--33-33-3--33-33-3--33-33-3--33-33-3--33-33-3--33-33-0--00-00--0-00-00-|
g|-0--00-00-0--00-00-0--00-00-0--00-00-2--22-22-2--22-22-0--00-00--0-00-00-|
d|-0--00-00-0--00-00-0--00-00-0--00-00-0--00-00-0--00-00-2--22-22--2-22-22-|
a|-2--22-22-2--22-22-2--22-22-2--22-22-------------------3--33-33--3-33-33-|
E|-3--33-33-3--33-33-3--33-33-3--33-33-------------------------------------|

(Taylor) - Starts just before 'And i've always lived like this...'
e|----12-|-11~-------------------------9~----------------7~----------------|
b|-12----|-12~------------------------10~----------------9~----------------|
g|-------|-----------------------------------------------------------------|
d|-------|-----------------------------------------------------------------|
a|-------|-----------------------------------------------------------------|
E|-------|-----------------------------------------------------------------|

e|-11~--------------11~----------------9~----------------7~---------------|
b|-12~--------------12~---------------10~----------------9~---------------|
g|------------------------------------------------------------------------|
d|------------------------------------------------------------------------|
a|------------------------------------------------------------------------|
E|------------------------------------------------------------------------|

(Josh) - 'Cos none of it was ever worth the risk.'
e|-0-00-00-0-00-00-|
b|-0-00-00-0-00-00-|
g|-0-00-00-0-00-00-|
d|-2-22-22-2-22-22-|
a|-3-33-33-3-33-33-|
E|-----------------|

(Taylor)
e|-7~--------------|
b|-9~--------------|
g|-----------------|
d|-----------------|
a|-----------------|
E|-----------------|

Chorus:
(Josh) X2
e|-3--33-33-3--33-33-3--33-33-3--33-33-1--11-11-1--11-11-0--00-00--0-00-00-|
b|-3--33-33-3--33-33-3--33-33-3--33-33-3--33-33-3--33-33-0--00-00--0-00-00-|
g|-0--00-00-0--00-00-0--00-00-0--00-00-2--22-22-2--22-22-0--00-00--0-00-00-|
d|-0--00-00-0--00-00-0--00-00-0--00-00-0--00-00-0--00-00-2--22-22--2-22-22-|
a|-2--22-22-2--22-22-2--22-22-2--22-22-------------------3--33-33--3-33-33-|
E|-3--33-33-3--33-33-3--33-33-3--33-33-------------------------------------|

(Taylor) X2
e|-------------------------------------9--9--9--9--9--9--11-11-11-11-11-11-|
b|-12-12-12-12-12-12-12-12-12-12-12-12-------------------------------------|
g|-------------------------------------------------------------------------|
d|-------------------------------------------------------------------------|
a|-------------------------------------------------------------------------|
E|-------------------------------------------------------------------------|

Bridge:
(Josh) X4
e|-0--00-00-0--00-00-0--00-00-0--00-00-3--33-33-3--33-33-2--22-22-2--22-22-|
b|-1--11-11-1--11-11-1--11-11-1--11-11-3--33-33-3--33-33-3--33-33-3--33-33-|
g|-2--22-22-2--22-22-2--22-22-2--22-22-0--00-00-0--00-00-2--22-22-2--22-22-|
d|-2--22-22-2--22-22-2--22-22-2--22-22-0--00-00-0--00-00-0--00-00-0--00-00-|
a|-0--00-00-0--00-00-0--00-00-0--00-00-2--22-22-2--22-22-------------------|
E|-------------------------------------3--33-33-3--33-33-------------------|

(Taylor) X2
e|-16~---------------------------------16~---------------------------------|
b|----------19~---------------19~---------------19~------------------------|
g|----------------------15-16----------------------------15--16------------|
d|---------------------------------------------------------------16~-------|
a|-------------------------------------------------------------------------|
E|-------------------------------------------------------------------------|

'I've got a tight grip on reality but I can't...'
e|-------------------------------------------------------------------------|
b|-------------------------------------------------------------------------|
g|-------------------------------------------------------------------------|
d|-14-14-14-13-13-13-11-11-11-11-/13~--9--9--9--11-11-11--8--8--8--8--8--8-|
a|-------------------------------------------------------------------------|
E|-------------------------------------------------------------------------|

e|-------------------------------------------------------------------------|
b|-------------------------------------------------------------------------|
g|-9--9--9--8--8--8--11-11-11-11-11~---------------------------------------|
d|-------------------------------------9--9--9--11-11-11--8--8--8--8--8--8-|
a|-------------------------------------------------------------------------|
E|-------------------------------------------------------------------------|

(Josh)
e|-0--00-00-0--00-00-0~---|
b|-0--00-00-0--00-00-0~---|
g|-0--00-00-0--00-00-0~---|
d|-2--22-22-2--22-22-2~---|
a|-3--33-33-3--33-33-3~---|
E|------------------------|

(Taylor) - not 100% sure :/
e|------------------------|
b|------------------------|
g|-9~-------9~-------9~---|
d|------------------------|
a|------------------------|
E|------------------------|

Chorus & Outro:
(Josh) X2
e|-3--33-33-3--33-33-3--33-33-3--33-33-1--11-11-1--11-11-0--00-00--0-00-00-|
b|-3--33-33-3--33-33-3--33-33-3--33-33-3--33-33-3--33-33-0--00-00--0-00-00-|
g|-0--00-00-0--00-00-0--00-00-0--00-00-2--22-22-2--22-22-0--00-00--0-00-00-|
d|-0--00-00-0--00-00-0--00-00-0--00-00-0--00-00-0--00-00-2--22-22--2-22-22-|
a|-2--22-22-2--22-22-2--22-22-2--22-22-------------------3--33-33--3-33-33-|
E|-3--33-33-3--33-33-3--33-33-3--33-33-------------------------------------|

(Taylor) - Plays nothing first time 'round ^
e|-11-11-11-11-11-11-11-14-14-14-14-14-14-11-11-11-12-12-12-11-11-11-11-11-11---|
b|-12-12-12-12-12-12-12-12-12-12-12-12-12---------------------------------------|
g|------------------------------------------------------------------------------|
d|------------------------------------------------------------------------------|
a|------------------------------------------------------------------------------|
E|------------------------------------------------------------------------------|

(Josh) X2
e|-3--33-33-3--33-33-3--33-33-3--33-33-1--11-11-1--11-11-0--00-00--0-00-00-|
b|-3--33-33-3--33-33-3--33-33-3--33-33-3--33-33-3--33-33-0--00-00--0-00-00-|
g|-0--00-00-0--00-00-0--00-00-0--00-00-2--22-22-2--22-22-0--00-00--0-00-00-|
d|-0--00-00-0--00-00-0--00-00-0--00-00-0--00-00-0--00-00-2--22-22--2-22-22-|
a|-2--22-22-2--22-22-2--22-22-2--22-22-------------------3--33-33--3-33-33-|
E|-3--33-33-3--33-33-3--33-33-3--33-33-------------------------------------|

(Taylor)
e|-------------------------------------9--9--9--9--9--9--11-11-11-11-11-11-|
b|-12-12-12-12-12-12-12-12-12-12-12-12-------------------------------------|
g|-------------------------------------------------------------------------|
d|-------------------------------------------------------------------------|
a|-------------------------------------------------------------------------|
E|-------------------------------------------------------------------------|

e|-------------------------------------14-14-14-12-12-12-11-11-11-11-11-11-|
b|-12-12-12-12-12-12-12-12-12-12-12-12-------------------------------------|
g|-------------------------------------------------------------------------|
d|-------------------------------------------------------------------------|
a|-------------------------------------------------------------------------|
E|-------------------------------------------------------------------------|

'And I'm on my way to believing...' - not 100% sure on the D minor :/ (Josh)
e|-1--11-11-1--11-11-0--00-00-0--00-00-3--33-33-3--33-33-3--33-33-3--33-33-|
b|-3--33-33-3--33-33-0--00-00-0--00-00-3--33-33-3--33-33-3--33-33-3--33-33-|
g|-2--22-22-2--22-22-0--00-00-0--00-00-0--00-00-0--00-00-0--00-00-0--00-00-|
d|-0--00-00-0--00-00-2--22-22-2--22-22-0--00-00-0--00-00-0--00-00-0--00-00-|
a|-------------------3--33-33-3--33-33-2--22-22-2--22-22-2--22-22-2--22-22-|
E|-------------------------------------3--33-33-3--33-33-3--33-33-3--33-33-|

(Taylor)
e|--9~---------------7~---------------11~----------------------------------|
b|-10~---------------9~---------------12~----------------------------------|
g|-------------------------------------------------------8-h9--9--9-p8~----|
d|-------------------------------------------------------------------------|
a|-------------------------------------------------------------------------|
E|-------------------------------------------------------------------------|

(Josh)
e|-1~----------------0~----------------3~----------------------------------|
b|-3~----------------0~----------------3~----------------------------------|
g|-2~----------------0~----------------0~----------------------------------|
d|-0~----------------2~----------------0~----------------------------------|
a|-------------------3~----------------2~----------------------------------|
E|-------------------------------------3~----------------------------------|

(Taylor)
e|--9~---------------7~---------------11~----------------------------------|
b|-10~---------------9~---------------12~----------------------------------|
g|-------------------------------------------------------------------------|
d|-------------------------------------------------------------------------|
a|-------------------------------------------------------------------------|
E|-------------------------------------------------------------------------|

- End -

:)
Tap to rate this tab
 
# A B C D E F G H I J K L M N O P Q R S T U V W X Y Z