Song name
# A B C D E F G H I J K L M N O P Q R S T U V W X Y Z

Paramore - Misguided Ghosts tab

 I know there are other tabs for this song but no one has gotten the guitar
 part for "Guitar 2" right. I plan on tabbing the whole song(Both guitar
 parts), but for now I'm just posting the Intro,Verse, and Refrain. On other
 tabs my Guitar 1 part is labeled "Guitar 2" but i changed it to Guitar 1
 since it's harder to play than the other guitar part.....anyways I hope you
 guys enjoy my interpretation of "Misguided Ghosts"....I think it's dead on
 but I'm always open to constructive criticism


Intro(x2)

Guitar 1

e|---------------------------------------------------------------------|
B|---------------------------------------------------------------------|
G|----2-------2--------2--------2--------0--------0---------------0----|
D|0h2---2--0----0--0h2----2--0----0--0h2----2--0----0---------0h2------|
A|---------------------------------------------------------------------|
E|1--1---1-1-1---1-1--1----1-1-1---1-3--3----3-3-3---3-0-0--0-0--0---0-|


Verse(x2)

Guitar 1

e|---------------------------------------------------------------------|
B|---------------------------------------------------------------------|
G|----2-------2--------2--------2--------0--------0---------------0----|
D|0h2---2--0----0--0h2----2--0----0--0h2----2--0----0---------0h2------|
A|---------------------------------------------------------------------|
E|1--1---1-1-1---1-1--1----1-1-1---1-3--3----3-3-3---3-0-0--0-0--0---0-|

Refrain

Guitar 1

e|----------------------------------------------------------------3---------3-----|
B|----1---------1---------------1-------------1---------1-----------1---0-----0---|
G|------2---------2-------0---------0-----------2---------2-----------0---------0-|
D|--------2---------2-------2---------2-----------3-------------------------------|
A|0-0-------0-0-------3-3-----3-3-3-----3-3-3-------3-3-----0---------------------|
E|------------------------------------------------------------3-3-------3-3-------|


e|----0---------0---------0---------0-----------------------------3---------|
B|1-----1---1-----1---------3---------3-------1---------1-----------1---0---|
G|--------2---------2---------0---------0-2-----2---2-----2-----------0-----|
D|------------------------------------------------3-------------------------|
A|0-0-------0-0---------------------------3-3---------3-----0---------------|
E|--------------------0-0-------0-0---------------------------3-3-------3---|


I will add the Chorus later this week and the part for Guitar 2 by the end of next week. 
this helps. Any feedback would be very much appreciated.
Tap to rate this tab
# A B C D E F G H I J K L M N O P Q R S T U V W X Y Z