Song name
# A B C D E F G H I J K L M N O P Q R S T U V W X Y Z

Paramore - The Only Exception tab

Artist: Paramore
Song: The Only Exception
Album: Brand New Eyes
Tabbed by: Kai Stracke

Paramore - The Only Exception Radio Nova 100.3 FM:
http://www.youtube.com/watch?v=H-g9OAh2-ng

I'm really sure that this is 99% correct.
You can play the H(7|9|9|X|X|X) and F#(0|9|11|11|0|0)chord with the finger in the 8th 
10th fret,
such as it is in the intro and verse, or play just the power chord.Both sounds right :D.


Guitar 1

Intro

e|--X--X-X-X-X-X--X-X-X-X-X--X-X-X-X-X--X--X--X--X--X--X---X-X-X-X-X-X-|
B|--------------------------------------10-10-10-10-10-10--------------|
G|--8--8-8-8-8-8--8-8-8-8-8--8-8-8-8-8--11-11-11-11-11-11--9-9-9-9-9-9-| x2
D|--9--9-9-9-9-9--9-9-9-9-9--9-9-9-9-9--11-11-11-11-11-11--9-9-9-9-9-9-|
A|--9--9-9-9-9-9--9-9-9-9-9--9-9-9-9-9--9--9--9--9--9--9---7-7-7-7-7-7-|
E|--7--7-7-7-7-7--7-7-7-7-7--7-7-7-7-7--X--X--X--X--X--X---X-X-X-X-X-X-|

Verse 1

e|--X--X-X-X-X-X--X-X-X-X-X--X-X-X-X-X--X--X--X--X--X--X---X-X-X-X-X-X-|
B|--------------------------------------10-10-10-10-10-10--------------|
G|--8--8-8-8-8-8--8-8-8-8-8--8-8-8-8-8--11-11-11-11-11-11--9-9-9-9-9-9-| x4
D|--9--9-9-9-9-9--9-9-9-9-9--9-9-9-9-9--11-11-11-11-11-11--9-9-9-9-9-9-|
A|--9--9-9-9-9-9--9-9-9-9-9--9-9-9-9-9--9--9--9--9--9--9---7-7-7-7-7-7-|
E|--7--7-7-7-7-7--7-7-7-7-7--7-7-7-7-7--X--X--X--X--X--X---X-X-X-X-X-X-|

Chorus

e|--X--X-X-X-X-X--X-X-X-X-X--X-X-X-X-X--------------------------|
B|--X--X-X-X-X-X--X-X-X-X-X--X-X-X-X-X--------------------------|
G|--X--X-X-X-X-X--X-X-X-X-X--X-X-X-X-X--2--2-2-2-2-2--1-1-1-1-1-|
D|--9--9-9-9-9-9--9-9-9-9-9--9-9-9-9-9--2--2-2-2-2-2--2-2-2-2-2-|x2
A|--9--9-9-9-9-9--9-9-9-9-9--9-9-9-9-9--2--2-2-2-2-2--2-2-2-2-2-|
E|--7--7-7-7-7-7--7-7-7-7-7--7-7-7-7-7--X--X-X-X-X-2--X-X-X-X-X-|

Verse 2

e|--X--X-X-X-X-X--X-X-X-X-X--X-X-X-X-X--X--X--X--X--X--X---X-X-X-X-X-X-|
B|--------------------------------------10-10-10-10-10-10--------------|
G|--8--8-8-8-8-8--8-8-8-8-8--8-8-8-8-8--11-11-11-11-11-11--9-9-9-9-9-9-| x4
D|--9--9-9-9-9-9--9-9-9-9-9--9-9-9-9-9--11-11-11-11-11-11--9-9-9-9-9-9-|
A|--9--9-9-9-9-9--9-9-9-9-9--9-9-9-9-9--9--9--9--9--9--9---7-7-7-7-7-7-|
E|--7--7-7-7-7-7--7-7-7-7-7--7-7-7-7-7--X--X--X--X--X--X---X-X-X-X-X-X-|

Chorus

e|--X--X-X-X-X-X--X-X-X-X-X--X-X-X-X-X--------------------------|
B|--X--X-X-X-X-X--X-X-X-X-X--X-X-X-X-X--------------------------|
G|--X--X-X-X-X-X--X-X-X-X-X--X-X-X-X-X--2--2-2-2-2-2--1-1-1-1-1-|
D|--9--9-9-9-9-9--9-9-9-9-9--9-9-9-9-9--2--2-2-2-2-2--2-2-2-2-2-|x2
A|--9--9-9-9-9-9--9-9-9-9-9--9-9-9-9-9--2--2-2-2-2-2--2-2-2-2-2-|
E|--7--7-7-7-7-7--7-7-7-7-7--7-7-7-7-7--X--X-X-X-X-2--X-X-X-X-X-|


Bridge

e|-------------------------------------------------------|
B|-------------------------------------------------------|
G|-------------------------------------------------------|
D|--11-11-11-11-11--11-11-11-11-11--9-9-9-9-9--4-4-4-4-4-|x4
A|--11-11-11-11-11--11-11-11-11-11--9-9-9-9-9--4-4-4-4-4-|
E|--9--9--9--9--9---9--9--9--9--9---7-7-7-7-7--2-2-2-2-2-|

e|--X--X-X-X-X-X--X-X-X-X-X--X-X-X-X-X--X--X--X--X--X--X---X-X-X-X-X-X-|
B|--------------------------------------10-10-10-10-10-10--------------|
G|--8--8-8-8-8-8--8-8-8-8-8--8-8-8-8-8--11-11-11-11-11-11--9-9-9-9-9-9-| x2
D|--9--9-9-9-9-9--9-9-9-9-9--9-9-9-9-9--11-11-11-11-11-11--9-9-9-9-9-9-|
A|--9--9-9-9-9-9--9-9-9-9-9--9-9-9-9-9--9--9--9--9--9--9---7-7-7-7-7-7-|
E|--7--7-7-7-7-7--7-7-7-7-7--7-7-7-7-7--X--X--X--X--X--X---X-X-X-X-X-X-|

Chorus

e|--X--X-X-X-X-X--X-X-X-X-X--X-X-X-X-X--------------------------|
B|--X--X-X-X-X-X--X-X-X-X-X--X-X-X-X-X--------------------------|
G|--X--X-X-X-X-X--X-X-X-X-X--X-X-X-X-X--2--2-2-2-2-2--1-1-1-1-1-|
D|--9--9-9-9-9-9--9-9-9-9-9--9-9-9-9-9--2--2-2-2-2-2--2-2-2-2-2-|x2
A|--9--9-9-9-9-9--9-9-9-9-9--9-9-9-9-9--2--2-2-2-2-2--2-2-2-2-2-|
E|--7--7-7-7-7-7--7-7-7-7-7--7-7-7-7-7--X--X-X-X-X-2--X-X-X-X-X-|

e|-------------------------X-X-X-X-X--X-X-X-X-X-----------------------|
B|-------------------------X-X-X-X-X--X-X-X-X-X--2-2-2-2-2------------|
G|--2-2-2-2-2---1-1-1-1-1--X-X-X-X-X--X-X-X-X-X--2-2-2-2-2--1-1-1-1-1-|
D|--2-2-2-2-2---2-2-2-2-2--9-9-9-9-9--9-9-9-9-9--2-2-2-2-2--2-2-2-2-2-|
A|--2-2-2-2-2---2-2-2-2-2--9-9-9-9-9--9-9-9-9-9--2-2-2-2-2--2-2-2-2-2-|
E|--2-2-2-2-2---X-X-X-X-X--7-7-7-7-7--7-7-7-7-7--X-X-X-X-2--X-X-X-X-X-|
Tap to rate this tab
 
# A B C D E F G H I J K L M N O P Q R S T U V W X Y Z