Song name
# A B C D E F G H I J K L M N O P Q R S T U V W X Y Z

Paramore - Misery Business Acoustic tab

-------------------------------------------------------------------------------
			     Misery Business (Acoustic) - Paramore
-------------------------------------------------------------------------------
Tabbed by: Dave

Tuning: Dropped D and then 1/2 step down


INTRO
D#|------------------------------------------------------------|
A#|------------------------------------------------------------|
F#|------------------------------------------------------------|
C#|--7-7-7-9-11-9-11-6-6-6-6-6-6-7-7-7-9-11-9-11---------------|
G#|----------------------------------------------9-9-9-9-9-9---|
C#|------------------------------------------------------------|

D#|------------------------------------------------------------|
A#|------------------------------------------------------------|
F#|------------------------------------------------------6/9-9-|
C#|--7-7-7-9-11-9-11-6-6-6-6-6-6-7-7-7-9-11-9-11-----7-9-------|
G#|----------------------------------------------7-9-----------|
C#|------------------------------------------------------------|

VERSE 1
D#|----------------------------------------------------------|
A#|----------------------------------------------------------|
F#|----------------------------------------------------------|
C#|---4-4--4---------2-2--2-2-2-2-4-4--4---------0-0-0-0-0-0-|
G#|---4-4--4-2h4-2h4-2-2--2-2-2-2-4-4--4-2h4-2h4-0-0-0-0-0-0-|
C#|---4-4--4---------2-2--2-2-2-2-4-4--4---------0-0-0-0-0-0-|
pm   . . . . . . . . . . . . . . . . . . . . . . . . . . .

D#|--------------------------------------------------------------|
A#|--------------------------------------------------------------|
F#|--------------------------------------------------------------|
C#|---4-4--4---------2-2--2-2-2-2-4-4--4---------9-9-9-9-6-6-6-6-|
G#|---4-4--4-2h4-2h4-2-2--2-2-2-2-4-4--4-2h4-2h4-7-7-7-7-7-7-7-7-|
C#|---4-4--4---------2-2--2-2-2-2-4-4--4---------7-7-7-7-6-6-6-6-|
pm   . . . . . . . . . . . . . . . . . . . . . . . . . . . . . .

     (0:23)
D#|--------------------------------------------------------|
A#|---7-7-7-7-10-7-10-7-7-7-7-10-7-10-7-7-7-7--------------|
F#|-------------------------------------------9-9-9-9------|
C#|--------------------------------------------------------|
G#|--------------------------------------------------------|
C#|--------------------------------------------------------|
pm   . . . . . . . . . . . . . . . . . . . . . . . . . . .

D#|------------------------------------------------------------------------------|
A#|---7-7-7-7-10-7-10-7-7-7-7-10-7-10-7-7-7-7-10-7-10-12-12-12-12-12-12/14-14----|
F#|------------------------------------------------------------------------------|
C#|------------------------------------------------------------------------------|
G#|------------------------------------------------------------------------------|
C#|------------------------------------------------------------------------------|
pm   . . . . . . . . . . . . . . . . . . . . . . . . . . . . . . . . . . . . . .


D#|---------------------------------------|
A#|---------------------------------------|
F#|---------------------------------------|
C#|-------4-4-4-4-4-4-4-2-2-2-2-2---------|
G#|-------4-4-4-4-4-4-4-2-2-2-2-2---------|
C#|-------4-4-4-4-4-4-4-2-2-2-2-2---------|
pm   . . . . . . . . . . . . .

CHORUS  (0:37)
D#|-------------------------------------------------------|
A#|---7-7-7-7-7-------------------------------------------|
F#|---6-6-6-6-6---6-6-6-6-6-------------6-6-6-6-6-6-6-6---|
C#|---4-4-4-4-4---7-7-7-7-7--4-4-4-4-4--7-7-7-7-6-6-6-6---|    X2
G#|---0-0-0-0-0---7-7-7-7-7--4-4-4-4-4--4-4-4-4-4-4-4-4---|
C#|--------------------------2-2-2-2-2--4-4-4-4-4-4-4-4---|


D#|---------------------------------------------------------------------|
A#|---------------------------------------------------------------------|
F#|--11-11-11-11-11-11-11-14-14-14-14-13-13-13-13-13-13-13-14-14-14-14--|
C#|---------------------------------------------------------------------|
G#|--9--9--9--9--9--9--9--12-12-12-12-11-11-11-11-11-11-11-12-12-12-12--|
C#|---------------------------------------------------------------------|
    staccato

D#|---------------------------------------------------------------|
A#|---------------------------------------------------------------|
F#|--11-11-11-11-11-11-11-14-14-14-14-13-13-13-13--14-14-14-14-12-|
C#|---------------------------------------------------------------|
G#|--9--9--9--9--9--9--9--12-12-12-12-11-11-11-11-----------------|
C#|---------------------------------------------------------------|
    staccato

D#|------------------------------------------------------------|
A#|------------------------------------------------------------|
F#|----------------------------------------------11-11-11-11---|
C#|--7-7-7-9-11-9-11-6-6-6-6-6-6-7-7-7-9-11-9-11---------------|
G#|----------------------------------------------9--9--9--9----|
C#|------------------------------------------------------------|

VERSE 2 (1:05)
D#|----------------------------------------------------------|
A#|----------------------------------------------------------|
F#|----------------------------------------------------------|
C#|---4-4--4---------2-2--2-2-2-2-4-4--4---------0-0-0-0-0-0-|
G#|---4-4--4-2h4-2h4-2-2--2-2-2-2-4-4--4-2h4-2h4-0-0-0-0-0-0-|
C#|---4-4--4---------2-2--2-2-2-2-4-4--4---------0-0-0-0-0-0-|
pm   . . . . . . . . . . . . . . . . . . . . . . . . . . .

D#|--------------------------------------------------------------|
A#|--------------------------------------------------------------|
F#|--------------------------------------------------------------|
C#|---4-4--4---------2-2--2-2-2-2-4-4--4---------9-9-9-9-9-9-9-9-|
G#|---4-4--4-2h4-2h4-2-2--2-2-2-2-4-4--4-2h4-2h4-7-7-7-7-7-7-7-7-|
C#|---4-4--4---------2-2--2-2-2-2-4-4--4---------7-7-7-7-6-6-6-6-|
pm   . . . . . . . . . . . . . . . . . . . . . . . . . . . . . .

D#|--------------------------------------------------------|
A#|---7-7-7-7-10-7-10-7-7-7-7-10-7-10-7-7-7-7--------------|
F#|-------------------------------------------9-9-9-9------|
C#|--------------------------------------------------------|
G#|--------------------------------------------------------|
C#|--------------------------------------------------------|
pm   . . . . . . . . . . . . . . . . . . . . . . . . . . .

D#|------------------------------------------------------------------------------|
A#|---7-7-7-7-10-7-10-7-7-7-7-10-7-10-7-7-7-7-10-7-10-12-12-12-12-12-12/14-14----|
F#|------------------------------------------------------------------------------|
C#|------------------------------------------------------------------------------|
G#|------------------------------------------------------------------------------|
C#|------------------------------------------------------------------------------|
pm   . . . . . . . . . . . . . . . . . . . . . . . . . . . . . . . . . . . . . .

D#|---------------------------------------|
A#|---------------------------------------|
F#|---------------------------------------|
C#|-------4-4-4-4-4-4-4-2-2-2-2-2---------|
G#|-------4-4-4-4-4-4-4-2-2-2-2-2---------|
C#|-------4-4-4-4-4-4-4-2-2-2-2-2---------|
pm   . . . . . . . . . . . . .


CHORUS (1:31)
D#|-------------------------------------------------------|
A#|---7-7-7-7-7-------------------------------------------|
F#|---6-6-6-6-6---6-6-6-6-6-------------6-6-6-6-6-6-6-6---|
C#|---4-4-4-4-4---7-7-7-7-7--4-4-4-4-4--7-7-7-7-6-6-6-6---|    X2
G#|---0-0-0-0-0---7-7-7-7-7--4-4-4-4-4--4-4-4-4-4-4-4-4---|
C#|--------------------------2-2-2-2-2--4-4-4-4-4-4-4-4---|

D#|---------------------------------------------------------------------|
A#|---------------------------------------------------------------------|
F#|--11-11-11-11-11-11-11-14-14-14-14-13-13-13-13-13-13-13-14-14-14-14--|
C#|---------------------------------------------------------------------|
G#|--9--9--9--9--9--9--9--12-12-12-12-11-11-11-11-11-11-11-12-12-12-12--|
C#|---------------------------------------------------------------------|
    staccato

D#|---------------------------------------------------------------|
A#|---------------------------------------------------------------|
F#|--11-11-11-11-11-11-11-14-14-14-14-13-13-13-13--14-14-14-14-12-|
C#|---------------------------------------------------------------|
G#|--9--9--9--9--9--9--9--12-12-12-12-11-11-11-11-----------------|
C#|---------------------------------------------------------------|
    staccato

   (1:54) This part he strums the chords from the chorus and picks the first 2 open 
 listen to it to get the idea.
D#|-------0-------0--------0----------|
A#|---7-0---0---0---0----0---0--------|
F#|---6-------6-----------------6-6---|
C#|---4-------7-------4---------7-6---|    X3
G#|---0-------7-------4---------4-4---|
C#|-------------------2---------4-4---|

D#|-------0-------0--------0---------------|
A#|---7-0---0---0---0----0---0-------------|
F#|---6-------6-----------------6-6-6-6-6--|
C#|---4-------7-------4---------7-7-7-7-6--|
G#|---0-------7-------4---------4-4-4-4-4--|
C#|-------------------2---------4-4-4-4-4--|

SOLO (2:16)
D#|----------------------------------------------------------------------------------|
A#|----------------------------------------------------------------------------------|
F#|----------------------------------------------------------------------------------|
C#|---------------------------------------------------------12-12-12-12-11-11-11-11--|
G#|--7/9-9-9-9-9-9-9-9-7/9-9-9-9-9-9-9-9-7/9-9-9-9-9-9-9-9---------------------------|
C#|----------------------------------------------------------------------------------|

D#|----------------------------------------------------------------------------------|
A#|----------------------------------------------------------------------------------|
F#|----------------------------------------------------------------------------------|
C#|---------------------------------------------------------12-12-12-12-11-11-11-11--|
G#|--7/9-9-9-9-9-9-9-9-7/9-9-9-9-9-9-9-9-7/9-9-9-9-9-9-9-9---------------------------|
C#|----------------------------------------------------------------------------------|

D#|------------------------------------------------------------------|
A#|------------------------------------------------------------------|
F#|--9-9-9-9-9-9-9-9-------------------------------------------------|
C#|------------------12-12-12-12-12-12-12-12-11-11-11-11-11-11-11-11-|
G#|------------------------------------------------------------------|
C#|------------------------------------------------------------------|

D#|----------------------------------------------------------------------------------------------|
A#|----------------------------------------------------------10-10-10-10-12-12/14-14-14\9-9-9-9-9|
F#|------------------9-9-9-9-9-9-9-9-11-11-11-11-11-11-11-11-------------------------------------|
C#|-9-9-9-9-9-9-9-9------------------------------------------------------------------------------|
G#|----------------------------------------------------------------------------------------------|
C#|----------------------------------------------------------------------------------------------|

D#|-------------------------------------------------------|
A#|---7-7-7-7-7-------------------------------------------|
F#|---6-6-6-6-6---6-6-6-6-6-------------6-6-6-6-6-6-6-6---|
C#|---4-4-4-4-4---7-7-7-7-7--4-4-4-4-4--7-7-7-7-6-6-6-6---|    X2
G#|---0-0-0-0-0---7-7-7-7-7--4-4-4-4-4--4-4-4-4-4-4-4-4---|
C#|--------------------------2-2-2-2-2--4-4-4-4-4-4-4-4---|

D#|---------------------------------------------------------------------|
A#|---------------------------------------------------------------------|
F#|--11-11-11-11-11-11-11-14-14-14-14-13-13-13-13-13-13-13-14-14-14-14--|
C#|---------------------------------------------------------------------|
G#|--9--9--9--9--9--9--9--12-12-12-12-11-11-11-11-11-11-11-12-12-12-12--|
C#|---------------------------------------------------------------------|
    staccato

D#|---------------------------------------------------------------|
A#|---------------------------------------------------------------|
F#|--11-11-11-11-11-11-11-14-14-14-14-13-13-13-13--14-14-14-14-12-|
C#|---------------------------------------------------------------|
G#|--9--9--9--9--9--9--9--12-12-12-12-11-11-11-11-----------------|
C#|---------------------------------------------------------------|
    staccato

D#|------------------------------------------------------------|
A#|------------------------------------------------------------|
F#|------------------------------------------------------------|
C#|--7-7-7-9-11-9-11-6-6-6-6-6-6-7-7-7-9-11-9-11---------------|
G#|----------------------------------------------9-9-9-9-9-9---|
C#|------------------------------------------------------------|

D#|------------------------------------------------------------|
A#|------------------------------------------------------------|
F#|----------------------------------------------11-11-11-11---|
C#|--7-7-7-9-11-9-11-6-6-6-6-6-6-7-7-7-9-11-9-11---------------|
G#|----------------------------------------------9--9--9--9----|
C#|------------------------------------------------------------|


************************************

| /   slide up
| \   slide down
| h   hammer-on
| p   pull-off
| ~   vibrato
| +   harmonic
| x   Mute note
| b   Bend
| pb  Pre-bend
| br  Bend release
| pbr Pre-bend release
| brb Bend release bend

************************************
Tap to rate this tab
# A B C D E F G H I J K L M N O P Q R S T U V W X Y Z